Oops, an error
Loading. Please wait.

Theme From The Search For Everything tab

version 1
version 1

Whole song

  • Includes both lead and rhythm parts.

Interactive

2,338 views 96 this week
no commentswrite comment
1 2 3 4 5
x 4
add to favorites
×
Save as Personal and add changes to this tab that will be seen only by you. Learn more ›
×
You can save this tab as Personal to edit and correct it or add notes. All changes will be seen only by you. Learn more »
launch autoscroll
font size
0
reset
how to read this tab
guitar tuner
edit
Autoscroll
slow
fast
+/-
esc
set tempo
stop
About this tab version
Includes both lead and rhythm parts. Was this info helpful? Yes No
John Mayer
"Theme from 'The Search For Everything'"

Standard tuning.


[A Section]
  G1
e|--------------------------------|--------------------------------|
B|-0--------------------------3---|--------------------------------|
G|--------------------2---4-------|2-----------------------2---0---|
D|--------------------------------|--------------------------------|
A|--------------------------------|--------------------------------|
E|--------------------------------|--------------------------------|
 |G2
e|--------------------------------|--------------------------------|
B|----0-----0---------0-----0-----|----0-----0---------0-----0-----|
G|------0-----0---------0-----0---|------2-----2---------2-----2---|
D|--------------------------------|--------------------------------|
A|--------------------------------|--------------------------------|
E|3-------3-------3-------3-------|3-------3-------3-------3-------|
  1 e + a 2 e + a 3 e + a 4 e + a  1 e + a 2 e + a 3 e + a 4 e + a  etc.

e|--------2-----------2---0-------|--------------------------------|
B|--------0-----------0---0---3---|0-------------------0---3-------|
G|----------------------------4---|0---------------------------0---|
D|4-------------------------------|--------------------------------|
A|--------------------------------|--------------------------------|
E|--------------------------------|--------------------------------|
 |
e|--------------------------------|--------------------------------|
B|--------------------------------|----0-----0---------0-----0-----|
G|----4-----4---------4-----4-----|------0-----0---------0-----0---|
D|------4-----4---------4-----4---|--------------------------------|
A|--------------------------------|--------------------------------|
E|3-------3-------3-------3-------|3-------3-------3-------3-------|

e|--------------------------------|--------------------------------|
B|------------------------0---1p0-|--------------------------------|
G|0-----2-------------------------|2-----------4p2p0-----------2p0/|
D|------------2-------2-----------|--------------------------------|
A|--------------------------------|--------------------------------|
E|--------------------------------|--------------------------------|
 |
e|--------------------------------|--------------------------------|
B|----1-----1---------1-----1-----|----1-----1---------1-----1-----|
G|------2-----2---------2-----2---|------2-----2---------2-----2---|
D|--------------------------------|--------------------------------|
A|3-------3-------3-------3-------|0-------0-------3-------3-------|
E|--------------------------------|--------------------------------|


e|------------------------0-------|--------------------------------|
B|----3---------------------3---1-|3-------------------------------|
G|4-------------------------------|--------------------------------|
D|--------------------------------|--------------------------------|
A|--------------------------------|--------------------0--/2---3---|
E|--------------------------------|--------------------------------|
 |
e|--------------------------------|--------------------------------|
B|----0-----0---------0-----0-----|----0-----0---------0-----0-----|
G|------0-----0---------0-----0---|------0-----0---------0-----0---|
D|--------------------------------|--------------------------------|
A|--------------------------------|--------------------------------|
E|3-------3-------3-------3-------|3-------3-------3-------3-------|

[B Section]

e|----2-----0---------------------|--------------------------------|
B|----3-----------3-----1---------|--------------------------------|
G|----2-----------------------2---|--0-----------------------------|
D|0-------------------------------|--------4-----------------------|
A|--------------------------------|--------------------------------|
E|--------------------------------|--------------------------------|
 |
e|--------------------------------|--------------------------------|
B|----3-----3-----3-----3-----3---|--3-----3-----3-----3-----3-----|
G|------0-----------0-----------0-|----------0-----------0-----0---|
D|--------4-----------4-----------|4-----------4-----------4-----4-|
A|5-------------------------------|------------------5-------------|
E|--------------------------------|--------------------------------|


e|----0---------------------------|--------------------------------|
B|----1-----3-----1-----0---------|--------------------------------|
G|----0-----------------------2---|--0-----------------------------|
D|--------------------------------|--------2-----------------------|
A|3-------------------------------|--------------------------------|
E|--------------------------------|--------------------------------|
 |
e|--------------------------------|--------------------------------|
B|----1-----1-----1-----1-----1---|--1-----1-----1-----1-----1-----|
G|------0-----------0-----------0-|----------0-----------0-----0---|
D|--------2-----------2-----------|2-----------2-----------2-----2-|
A|3-------------------------------|------------------3-------------|
E|--------------------------------|--------------------------------|


e|----2-----0---------------------|--------------------------------|
B|----3-----------3-----1---------|--------------------------------|
G|----2-----------------------2---|--0-----------------------------|
D|0-------------------------------|--------4-----------------------|
A|--------------------------------|--------------------------------|
E|--------------------------------|--------------------------------|
 |
e|--------------------------------|--------------------------------|
B|----3-----3-----3-----3-----3---|--3-----3-----3-----3-----3-----|
G|------0-----------0-----------0-|----------0-----------0-----0---|
D|--------4-----------4-----------|4-----------4-----------4-----4-|
A|5-------------------------------|------------------5-------------|
E|--------------------------------|--------------------------------|


e|----0---------------------------|--------------------------------|
B|----1-----3-----1-----0---------|------------------------------0-|
G|----0-----------------------2---|--0-----------------------------|
D|--------------------------------|--------2---------------0-2-----|
A|3-------------------------------|--------------------3-----------|
E|--------------------------------|--------------------------------|
 |
e|--------------------------------|--------------------------------|
B|----1-----1-----1-----1-----1---|--1-----1-----1-----1-----1-----|
G|------0-----------0-----------0-|----------0-----------0-----0---|
D|--------2-----------2-----------|2-----------2-----------2-----2-|
A|3-------------------------------|------------------3-------------|
E|--------------------------------|--------------------------------|

[C section]

e|--------------------------------|--------------------------------|
B|------------0---1---------3p1---|0-------------------------------|
G|--------------------------------|------------0---2---------4p2---|
D|--------------------------------|--------------------------------|
A|--------------------------------|--------------------------------|
E|--------------------------------|--------------------------------|
 |
e|--------------------3-----3-----|--------------------------------|
B|----0-----0-----------0-----0---|----0-----0---------0-----0-----|
G|------0-----0-------------------|------0-----0---------2-----2---|
D|--------------------------------|--------------------------------|
A|----------------3-------3-------|----------------0-------0-------|
E|3-------3-----------------------|3-------3-----------------------|


e|--------------------------------|----------------|
B|--------0---3---6------4--------|3-------1-------|
G|0---0---------------------------|----------------|
D|--------------------------------|----------------|
A|--------------------------------|----------------|
E|--------------------------------|----------------|
 |
e|--------------------------------|----------------|
B|----0-----0-----6-------4-------|3---3---1---1---|
G|------0-----0-------5---5---5---|----0-------0---|
D|--------------------------------|----------------|
A|----------------3-------3-------|3-------3-------|
E|3-------3-----------------------|----------------|

[D Section]

e|--------------------------------|--------------------------------|
B|-0--------------------------3---|--------------------------------|
G|--------------------2---4-------|2-----------------------2---0---|
D|--------------------------------|--------------------------------|
A|--------------------------------|--------------------------------|
E|--------------------------------|--------------------------------|
 |
e|--------------------------------|--------------------------------|
B|----0-----0---------0-----0-----|----0-----0---------0-----0-----|
G|--0-----0---0-----0-----0---0---|--2-----2---2-----2-----2---2---|
D|--------------------------------|--------------------------------|
A|--------------------------------|--------------------------------|
E|3-----3---------3-----3---------|3-----3---------3-----3---------|


e|--------2-----------2---0-------|--------------------------------|
B|--------0-----------0---0---3---|0-------------------0---3-------|
G|----------------------------4---|0---------------------------0---|
D|4-------------------------------|--------------------------------|
A|--------------------------------|--------------------------------|
E|--------------------------------|--------------------------------|
 |
e|--------------------------------|--------------------------------|
B|--------------------------------|----0-----0---------0-----0-----|
G|----4-----4---------4-----4-----|--0-----0---0-----0-----0---0---|
D|--4-----4---4-----4-----4---4---|--------------------------------|
A|--------------------------------|--------------------------------|
E|3-----3---------3-----3---------|3-----3---------3-----3---------|


e|--------------------------------|--------------------------------|
B|------------------------0---1p0-|--------------------------------|
G|0-----2-------------------------|2-----------4p2p0-----------2p0/|
D|------------2-------2-----------|--------------------------------|
A|--------------------------------|--------------------------------|
E|--------------------------------|--------------------------------|
 |
e|--------------------------------|--------------------------------|
B|----1-----1---------1-----1-----|----1-----1---------1-----1-----|
G|--2-----2---2-----2-----2---2---|--2-----2---2-----2-----2---2---|
D|--------------------------------|--------------------------------|
A|3-----3---------3-----3---------|0-----0---------3-----3---------|
E|--------------------------------|--------------------------------|


e|------------------------0-------|--------------------------------|
B|----3---------------------3---1-|3-------------------------------|
G|4-------------------------------|--------------------------------|
D|--------------------------------|--------------------------------|
A|--------------------------------|--------------------0--/2---3---|
E|--------------------------------|--------------------------------|
 |
e|--------------------------------|--------------------------------|
B|----0-----0---------0-----0-----|----0-----0---------0-----0-----|
G|--0-----0---0-----0-----0---0---|--0-----0---0-----0-----0---0---|
D|--------------------------------|--------------------------------|
A|--------------------------------|--------------------------------|
E|3-----3---------3-----3---------|3-----3---------3-----3---------|

[E Section]

e|----2-----0---------------------|--------------------------------|
B|----3-----------3-----1---------|--------------------------------|
G|----2-----------------------2---|--0-----------------------------|
D|0-------------------------------|--------4-----------------------|
A|--------------------------------|--------------------------------|
E|--------------------------------|--------------------------------|
 |
e|--------------------------------|--------------------------------|
B|----3-----3-----3-----3-----3---|--3-----3-----3-----3-----3-----|
G|------0-----------0-----------0-|----------0-----------0-----0---|
D|--------4-----------4-----------|4-----------4-----------4-----4-|
A|5-------------------------------|------------------5-------------|
E|--------------------------------|--------------------------------|


e|----0---------------------------|--------------------------------|
B|----1-----3-----1-----0---------|--------------------------------|
G|----0-----------------------2---|--0-----------------------------|
D|--------------------------------|--------2-----------------------|
A|3-------------------------------|--------------------------------|
E|--------------------------------|--------------------------------|
 |
e|--------------------------------|--------------------------------|
B|----1-----1-----1-----1-----1---|--1-----1-----1-----1-----1-----|
G|------0-----------0-----------0-|----------0-----------0-----0---|
D|--------2-----------2-----------|2-----------2-----------2-----2-|
A|3-------------------------------|------------------3-------------|
E|--------------------------------|--------------------------------|


e|----2-----0---------------------|--------------------------------|
B|----3-----------3-----1---------|--------------------------------|
G|----2-----------------------2---|--0-----------------------------|
D|0-------------------------------|--------4-----------------------|
A|--------------------------------|--------------------------------|
E|--------------------------------|--------------------------------|
 |
e|--------------------------------|--------------------------------|
B|----3-----3-----3-----3-----3---|--3-----3-----3-----3-----3-----|
G|------0-----------0-----------0-|----------0-----------0-----0---|
D|--------4-----------4-----------|4-----------4-----------4-----4-|
A|5-------------------------------|------------------5-------------|
E|--------------------------------|--------------------------------|


e|----0---------------------------|--------------------------------|
B|----1-----3-----1-----0---------|------------------------------0-|
G|----0-----------------------2---|--0-----------------------------|
D|--------------------------------|--------2---------------0-2-----|
A|3-------------------------------|--------------------3-----------|
E|--------------------------------|--------------------------------|
 |
e|--------------------------------|--------------------------------|
B|----1-----1-----1-----1-----1---|--1-----1-----1-----1-----1-----|
G|------0-----------0-----------0-|----------0-----------0-----0---|
D|--------2-----------2-----------|2-----------2-----------2-----2-|
A|3-------------------------------|------------------3-------------|
E|--------------------------------|--------------------------------|

[F section]

e|--------------------------------|--------------------------------|
B|------------0---1---------3p1---|0-------------------------------|
G|--------------------------------|------------0---2---------4p2---|
D|--------------------------------|--------------------------------|
A|--------------------------------|--------------------------------|
E|--------------------------------|--------------------------------|
 |
e|--------------------3-----3-----|--------------------------------|
B|----0-----0-------0-----0---0---|----0-----0---------0-----0-----|
G|--0-----0---0-------------------|--0-----0---0-----2-----2---2---|
D|--------------------------------|--------------------------------|
A|----------------3-----3---------|----------------0-----0---------|
E|3-----3-------------------------|3-----3-------------------------|

e|--------------------------------|--------------------------------|----------------|
B|--------------------------------|----------------6---4---3---1---|0---------------|
G|--------------------------------|--------------------------------|----------------|
D|------------0---1---------3p1---|0-------------------------------|----------------|
A|--------------------------------|--------------------------------|----------------|
E|--------------------------------|--------------------------------|----------------|
 |
e|--------------------3-----3-----|--------------------------------|----------------|
B|----0-----0-------0-----0---0---|------------3---6---4---3---1---|0---------------|
G|--0-----0---0-------------------|0-------0-----------------------|0---------------|
D|--------------------------------|----0---------------------------|0---------------|
A|----------------3-----3---------|----------------3---3---3---3---|----------------|
E|3-----3-------------------------|3-------------------------------|3---------------|



************************************

| p   Pull-off
| /   Slide up

************************************

            
            
Suggest correction
Creating personal tab
Creating personal tab
You can edit any tab online and save it as your Personal.

You can edit, replace or remove any tab part or add personal notes – all changes will be seen only by you.

Personal tabs can be accessed anytime from any device, even offline.
Learn more »
comments
print report bad tab
guest
You may want to rate the tab now too:
select rating
Wanna post a correction for this tab? Suggest correction