Oops, an error
Loading. Please wait.

Try Tab

version 1
version 1

Whole song

Interactive

24,481 views 21 this week
3 commentsread comments
1 2 3 4 5
accurate
x 10
add to favorites
launch autoscroll
font size
0
reset
how to read this tab
guitar tuner
Autoscroll
slow
fast
+/-
esc
set tempo
stop
Help us to improve Ultimate-Guitar.com Take our survey!
×
Author
Difficulty
intermediate
-------------------------------------------------------------------------------
                             try - John mayer
-------------------------------------------------------------------------------
Tabbed by: steffen pedersen
Email: stef_pedersen@hotmail.com

Tuning:e-a-d-g-b-e
(intro)
e|--------------------------------8----------------------5-------------------|
B|--------------------------------8h9-------11p8---------5-------------------|
G|--------------------------------8h10----------10p8-----5-------------------|
D|10-----10-----10----7-1010p7----8-----------------10s7-7-----------8h10----|
A|------------------99------------------------------------------8h10---------|
E|---8------8----------------------------------------------------------------|

e|8-----------------------|g|------------------------------------------------|
B|8h9-------11p8----------|e|------------------------------------------------|
G|8h10----------10p8------|n|--gentag indtil vers kommer---------------------|
D|8-----------------10s7--|t|------------------------------------------------|
A|------------------------|a|------------------------------------------------|
E|------------------------|g|------------------------------------------------|

(vers)*2
e|-8-----8----8----8s--5---5---5---5----*----*----*----*----5----5---5----5--|
B|-8-----8----8----8s--5---5---5---5----8----8----8----8----5----5---5----5--|
G|-8h9---9----9----9s--5---5---5---5----8----8----8----8----5----5---5----5--|
D|-8h10--10---10---10s-7---7---7---7----7----7----7----7----7----7---7----7--|
A|--------------------------------------8----8----8----8---------------------|
E|---------------------------------------------------------------------------|

(omkvaed)*2
e|-8-----8----8----8---*---*---*---*----*----*----*----*----5----5---5----5--|
B|-8-----8----8----8---8---8---8---8----8----8----8----8----5----5---5----5--|
G|-8h9---9----9----9---8---8---8---8----8----8----8----8----5----5---5----5--|
D|-8h10--10---10---10--8---8---8---8----7----7----7----7----7----7---7----7--|
A|---------------------6---6---6---6----8----8----8----8---------------------|
E|---------------------------------------------------------------------------|

(interlude 1)
e|--------------8----------------------5------------------8-------------------|
B|--------------8h9-------11p8---------5------------------8h9----11p8---------|
G|--------------8h10----------10p8-----5------------------8h10-------10p8-----|
D|--7-1010p7----8-----------------10s7-7-----------8h10---8--------------10s7-|
A|99------------------------------------------8h10----------------------------|
E|----------------------------------------------------------------------------|

(vers)*2
e|-8-----8----8----8s--5---5---5---5----*----*----*----*----5----5---5----5--|
B|-8-----8----8----8s--5---5---5---5----8----8----8----8----5----5---5----5--|
G|-8h9---9----9----9s--5---5---5---5----8----8----8----8----5----5---5----5--|
D|-8h10--10---10---10s-7---7---7---7----7----7----7----7----7----7---7----7--|
A|--------------------------------------8----8----8----8---------------------|
E|---------------------------------------------------------------------------|

(omkvaed)*2
e|-8-----8----8----8---*---*---*---*----*----*----*----*----5----5---5----5--|
B|-8-----8----8----8---8---8---8---8----8----8----8----8----5----5---5----5--|
G|-8h9---9----9----9---8---8---8---8----8----8----8----8----5----5---5----5--|
D|-8h10--10---10---10--8---8---8---8----7----7----7----7----7----7---7----7--|
A|---------------------6---6---6---6----8----8----8----8---------------------|
E|---------------------------------------------------------------------------|

(interlude 2)
e|-8---8s--10--10------*---*----5--|g|---------------------------------------|
B|-8---8s--10--10------8---8----5--|e|---------------------------------------|
G|-9---9s--11--11------8---8----5--|n|---------------------------------------|
D|-8---8s--10--10------7---7----7--|t|---------------------------------------|
A|-10--10s-12--12------8---8-------|a|---------------------------------------|
E|-8---8s--10--10------------------|g|---------------------------------------|

(solo)
e|-----------------------------15b16-----------------------------------------|
B|----1313-15b16-----15b16-13-------(15)15p13-------13h15p13--13h15b16-------|
G|-s14------------14-------------------------14---14--------14---------------|
D|---------------------------------------------------------------------------|
A|---------------------------------------------------------------------------|
E|---------------------------------------------------------------------------|

e|---------------------------------------------------------------------------|
B|13--13h16p13--13h16p13--13h16p13--13-16b17-1313----13151513--13------------|
G|------------15--------15--------15---------------14--------14--------------|
D|---------------------------------------------------------------------------|
A|---------------------------------------------------------------------------|
E|---------------------------------------------------------------------------|

e|-----------------------------------------2020202020\s---2020202020\s-------|
B|-13s16-13s15-15s13--15s17-17s15-15s13----------------13-------------/16----|
G|--------------------------------------------------------------------/17----|
D|---------------------------------------------------------------------------|
A|---------------------------------------------------------------------------|
E|---------------------------------------------------------------------------|

e|----------15p11------------------------------------------------------------|
B|-161616s13-----16-13-161616p13-13----15-1616p15-13--13----13-1515b16-1313--|
G|-171717--------------------------14---------------14----14-----------------|
D|---------------------------------------------------------------------------|
A|---------------------------------------------------------------------------|
E|---------------------------------------------------------------------------|

e|-15s17\15---------------------------------------------------------8--------|
B|-14s16---16p1313---13-1515h1313--13131313131210s11v11v11v11v10-7s8-8-------|
G|-----------------14----------------------141311s12v12v12v12v11-8s---9------|
D|---------------------------------------------------------------------------|
A|---------------------------------------------------------------------------|
E|---------------------------------------------------------------------------|

e|-8---8---8---8----*--------------------------------------------------------|
B|-8---8---8---8----8--------------------------------------------------------|
G|-9---9---9---9----8--------------------------------------------------------|
D|-8---8---8---8----7--------------------------------------------------------|
A|-10--10--10--10---8--------------------------------------------------------|
E|---------------------------------------------------------------------------|

(omkvaed)*2
e|-8-----8----8----8---*---*---*---*----*----*----*----*----5----5---5----5--|
B|-8-----8----8----8---8---8---8---8----8----8----8----8----5----5---5----5--|
G|-8h9---9----9----9---8---8---8---8----8----8----8----8----5----5---5----5--|
D|-8h10--10---10---10--8---8---8---8----7----7----7----7----7----7---7----7--|
A|---------------------6---6---6---6----8----8----8----8---------------------|
E|---------------------------------------------------------------------------|

(outro)
e|---8-12-8------*---------<<<<
Suggest correction
What's this?
You can suggest a correction to this tab. Community and Mods will review your correction and vote to approve or reject it.
comments
print report bad tab
3 comments total.
0 reply
louie42 11 wrote on July 16 2009, 05:52 pm

great tab!!!! I've been looking everywhere for this THANKS

-1 reply
justin_fraser 806 wrote on August 11 2009, 01:23 am

Where you have the 99 in the intro it should actually be on the 10th fret there, not the 9th.

0 reply
Strat Master 49 wrote on August 23 2009, 07:30 pm

is this in german?? also you left out all the parts after the 3rd chorus (the one after the solo)

guest
You may want to rate the tab now too:
select rating
Please do not post tabs as comments. Select "correction" instead!