Oops, an error
Loading. Please wait.

Try Tab

version 3
version 3

Whole song

Interactive

21,803 views 6 this week
4 commentsread comments
1 2 3 4 5
x 9
add to favorites
launch autoscroll
font size
0
reset
how to read this tab
guitar tuner
Autoscroll
slow
fast
+/-
esc
set tempo
stop
Help us to improve Ultimate-Guitar.com Take our survey!
×
Difficulty
intermediate
Song: Try
By: John Mayer
Album: Try!

x = palm mute
v~ = vibrato
S = Janglin a chord in that fast rythmic motion

NOTE: At the begining here he messes around with a delay pedal

Intro
e|----------------------------7-7--------------------|
B|------------------------7---7-7-----7-10-7---------|
G|-9-------xx-------------7---7-7--x---------9-7-----|
D|-9---9---xx------7-9v~-----------x-------------9v~-|
A|---------xx--9-9-----------------------------------|
E|---7---7-xx---------------7------------------------|

e|-------7---------------------7---------------------|
B|-7-----7---------------7-----7--7-10-7-------------|
G|-7---x-7---------------7---x-7---------9-7---------| X6
D|---6-x---x-----7-9v~-----6-x---------------9v~-----|
A|---------x-9-9-------------------------------------|
E|---------x-----------------------------------------|

then the drums come in, in the middle of it that lick... when
the drums do come in, just play that same thing just add your
own little fills... make it interesting...


Verse - in the verse he just does some fast jinglin with the chord changes...
he just plays these with some rythym... listen to the song for timing..
    S  S   S  S
e|--7--11--7--11--|
B|--7--11--7--11--|
G|--7--11--7--11--|
D|----------------|
A|----------------|  repeat...
E|----------------|

Chorus - he does the same "rythymic jinglin'"but just on the top chords
Verse
        S        S         S       S
e|------7--------10--------12------7-----------------|
B|------7--------10--------12------7-----------------|
G|------7--------10--------12------7-----------------| X 2
D|---------------------------------------------------|
A|---------------------------------------------------|
E|-7-7-----10-10-----12-12-----7-7-------------------|


Bridge (slowly strum these once...)
e|--7-----7----5----4--------------------------------|
B|--7-----6----5----4--------------------------------|
G|--7-----6----4----4--------------------------------|
D|---------------------------------------------------|
A|---------------------------------------------------|
E|---------------------------------------------------|


Outro
Verse
e|---------11---------------7-7-7-7-7--7-7--7--7--7-7--|
B|------12----12------------7-7-7-7-7--7-7--7--7--7-7--|
G|---11----------11--8------7-7-7-7-7--7-7--7--7--7-7--|
D|-9--------------------9------------------------------|
A|-----------------------------------------------------|
E|-----------------------------------------------------|
Suggest correction
comments
print report bad tab
4 comments total. Showing first comments.
+2 reply
Spydr 30 Jun 18, 2009 11:25 AM

I only looked at the intro but you are one fret low on everything, it should be in C not B, 8th fret not 7th.

0 reply
skizm699 10 Jul 13, 2009 10:55 PM

^^^^agreed.

0 reply
inside_ape 20 Dec 22, 2009 05:24 AM

verse is C, Am, F7, C
and bridge is C, Eb, F7, C

guest
You may want to rate the tab now too:
select rating
Wanna post a correction for this tab? Suggest correction