Oops, an error
Loading. Please wait.

Try Tab

version 4
version 4

Whole song

Interactive

6,026 views 1 this week
4 commentsread comments
1 2 3 4 5
worth learning
x 8
add to favorites
launch autoscroll
font size
0
reset
how to read this tab
guitar tuner
Autoscroll
slow
fast
+/-
esc
set tempo
stop
Help us to improve Ultimate-Guitar.com Take our survey!
×
I think this can be another version of it, its what I got from the live version, just 
to the song for pauses and patterns...

intro (not exact but close enough)

Part I
e---------------5---3h5p3------------|
B-----------5---5---------5--3-------|
G------8----5------------------5v----| "Yeah!"
D------------------------------------|
A------------------------------------|
E---8v-------------------------------|

Part II
e----------------------8--5--------------8---|
B------------5----5----------8--5--------8---|
G----------5---5--5----------------8-5---8---|
D--5-5--7------------------------------7-----|
A--------------------------------------------|
E--------------------------------------------|

----------------------8-5------------8------|
------------------5--------8-5-------8------|
---------5--8--5--5------------8 5---8------|
--5-5--7---------------------------7--------| x2
--------------------------------------------|
--------------------------------------------|

drums start then it slightly changes to:
Part IIIa
e-----------------8-5------------8----|
B-------------5--------8-5-------8----|
G---------5-5-5-------------8-8--8----|
D--5-5--7-----------------------------|
A-------------------------------------|
E-------------------------------------|

e-------------8---8-5------------5---|
B-------------8--------8-5----5--5---|
G--------5--8-8------------8--5--5---|
D--5-5-7-------------------------5---|
A------------------------------------|
E------------------------------------|

PART IIIb
e----------------8-5------------------|
B-------------5------8-5---------5----|
G---------5-8-5------------8--8--5----|
D--5-5-7------------------------------|
A-------------------------------------|
E-------------------------------------|

e--8-5----------8-8-8-8---5-5-5-5-----|
B------8-5------8-8-8-8---5-5-5-5-----|
G-----------8-5-8-8-8-8---5-5-5-5-----|
D-------------------------------------|
A-------------------------------------|
E-------------------------------------|


verse (listen to song for constant strum):
   A        B
e--8--------8-----------------------|
B--5--------8-----------------------|
G--5--------5-----------------------|
D--5--------7-----------------------|
A-----------------------------------|
E-----------------------------------|

A
Takes four days to get to like me
But two to wanna leave
B
But the part that really gets me
Are all the moments in between
A
Now I lie to get a little
And laugh at every little thing
B
She's high on information
But now I'm low on self-esteem

Chorus:
   A    C
e--8----5---------------------------|
B--5----5---------------------------|
G--5----8---------------------------|
D--5----5---------------------------|
A-------8---------------------------|
E-------5---------------------------|


              A    C
So I'm gonna try (try)
           A    C
I'm gonna try (try)
       C
Gonna try to be myself
           C
Although myself will wonder why
           A    C
I'm gonna try (try)
           A    C
I'm gonna try (try)
       C
Gonna try to be myself this time

play Part IIIb

verse 2:
   A        B
e--8--------8-----------------------|
B--5--------8-----------------------|
G--5--------5-----------------------|
D--5--------7-----------------------|
A-----------------------------------|
E-----------------------------------|
 A
I'm a hundred kinds of crazy
But I only wanna find
B
One sweet little angel
Who's gonna let me speak my mind
A
All I ever do these days
Is dumb my process down
B
She's making her decision
But now I'm losing all my ground

 A    C
So I'm gonna try (try)
           A    C
I'm gonna try (try)
       C
Gonna try to be myself
           C
Although myself will wonder why
           A    C
I'm gonna try (try)
           A    C
I'm gonna try (try)
       C
Gonna try to be myself this time

Bridge:
   D   E   F
e----------------------------------|
B--5---7---5-----------------------|
G--5---5---8-----------------------|
D--5---5---5-----------------------|
A----------------------------------|
E----------------------------------|

D
  Easy does it now
E
  Just keep your dang mouth shut
F
  She thinks you're hot already
D
  Don't go and press your luck
D
  No news is good news coming
E
  You gotta wait to find
F
  Don't go and blow it
D
  You do every single time

I havent tabbed the solo maybe ill do it later but im lazy right now sorry..

Chorus:
A    C
So I'm gonna try (try)
           A    C
I'm gonna try (try)
       C
Gonna try to be myself
           C
Although myself will wonder why
           A    C
I'm gonna try (try)
           A    C
I'm gonna try (try)
       C
Gonna try to be myself this time

  Ooh  ooh  ooh  ooh  ooh   ooh  oohooh
e----------------8-------------------------------|
B------5----8----------8-----5-------------------|
G--5----------------------------7--5-----8-8-8---|
D------------------------------------------------|   x3
A------------------------------------------------|
E------------------------------------------------|

He does a little cool move in the last notes of each measure...

Repeats chorus

oohs some more, u get the picture...

Let me know what u think, or changes u think should be made...

Pablo
tremor98@hotmail.com
Suggest correction
comments
print report bad tab
4 comments total. Showing first comments.
0 reply
Silent_64 56 wrote on June 21 2009, 04:34 pm

This sounds nothing like the version on the Try! Album, there's clearly tonnes of muted notes in that one.

0 reply
JJK 170 wrote on July 1 2009, 12:42 am

Sorry dude, this is awful.

0 reply
riccosuabe 30 wrote on July 5 2009, 07:30 pm

i agree the verse and chorus chords are a bit off but the intro is practically 100% if you watch the try performance on dvd

guest
You may want to rate the tab now too:
select rating
Please do not post tabs as comments. Select "correction" instead!