Oops, an error
Loading. Please wait.

Try Tab

version 5
version 5

Whole song

Interactive

20,849 views 81 this week
no commentswrite comment
1 2 3 4 5
x 7
add to favorites
launch autoscroll
font size
0
reset
how to read this tab
guitar tuner
×
Best way to learn
"Try"
Autoscroll
slow
fast
+/-
esc
set tempo
stop
Standard Tuning

[Intro]
e|-------------------------|-------8-8----------------------|
B|-------------------------|--8----8-8-------11^8-----------|
G|-10-------xx-------------|--8----8-8---xx-------10^8------| 
D|-10---10--xx-------8-10v~|-------------xx------------10v8-|
A|----------xx-10-10-------|-------------xx-----------------|
E|---8----8----------------|----8---------------------------|

e|------------------------------|------------------------------|
B|--8888------------------------|-------8888-------------------|
G|--8888------xx----------------|-------8888-xx--11^8----------| (6x)
D|--7777------xx-----~-----8-10-|--8--7-7777-xx-------10^8-----|
A|--8888------xx-----10-10------|-------8888-xx-------------10-|
E|------------------------------|------------------------------|

[Verse]
        C7        Am       F9      Am
e|------8---------5-----------------5------|
B|------8---------5--------8--------5------|
G|------9---------5--------8--------5------| (x2)
D|------8---------7--------7--------7------|
A|------10--------7--------8--------7------|
E|-8-8--8---5-5-5-5---x-x--x---5-5--5------|

[Chorus]
        C7          Eb/7      F9       Am
e|------8----------11-----------------5------|
B|------8(11)------11(13)----8--------5------|
G|------9----------12--------8--------5------| (x2)
D|------8----------11--------7--------7------|
A|------10---------13--------8--------7------|
E|-8-8--8---11-11--11---x-x--x---5-5--5------|

[Bridge] 
(Slow)
        C7         D7      F9*           Am
e|------8----------10-----------------5------|
B|------8(11)------11(13)----8--------5------|
G|------9----------11--------8--------5------| (x2)
D|------8----------10--------7--------7------| (Secondtime F9 2x(No Am))
A|------10---------12--------8--------7------|  
E|-8-8--8---10-10--10---x-x--*--1-3-4-5------|

[Solo]
e|-----------------------------15b16----------------------------------------|
B|----1313-15b16-----15b16-13-------(15)15p13-------13h15p13--13h15b16------|
G|-s14------------14-------------------------14---14--------14--------------|
D|--------------------------------------------------------------------------|
A|--------------------------------------------------------------------------|
E|--------------------------------------------------------------------------|

e|--------------------------------------------------------------------------|
B|13--13h16p13--13h16p13--13h16p13--13-16b17-1313----13151513--13-----------|
G|------------15--------15--------15---------------14--------14-------------|
D|--------------------------------------------------------------------------|
A|--------------------------------------------------------------------------|
E|--------------------------------------------------------------------------|

e|-----------------------------------------2020202020\s---2020202020\s------|
B|-13s16-13s15-15s13--15s17-17s15-15s13----------------13-------------/16---|
G|--------------------------------------------------------------------/17---|
D|--------------------------------------------------------------------------|
A|--------------------------------------------------------------------------|
E|--------------------------------------------------------------------------|

e|----------15p11-----------------------------------------------------------|
B|-161616s13-----16-13-161616p13-13----15-1616p15-13--13----13-1515b16-1313-|
G|-171717--------------------------14---------------14----14----------------|
D|--------------------------------------------------------------------------|
A|--------------------------------------------------------------------------|
E|--------------------------------------------------------------------------|

e|-15s17\15---------------------------------------------------------8-------|
B|-14s16---16p1313---13-1515h1313--13131313131210s11v11v11v11v10-7s8-8------|
G|-----------------14----------------------141311s12v12v12v12v11-8s---9-----|
D|--------------------------------------------------------------------------|
A|--------------------------------------------------------------------------|
E|--------------------------------------------------------------------------|

e|-8---8---8---8----*-------------------------------------------------------|
B|-8---8---8---8----8-------------------------------------------------------|
G|-9---9---9---9----8-------------------------------------------------------|
D|-8---8---8---8----7-------------------------------------------------------|
A|-10--10--10--10---8-------------------------------------------------------|
E|--------------------------------------------------------------------------|

[Chorus]
        C7          Eb/7      F9       Am
e|------8----------11-----------------5------|
B|------8(11)------11(13)----8--------5------|
G|------9----------12--------8--------5------| (x4)
D|------8----------11--------7--------7------|
A|------10---------13--------8--------7------|
E|-8-8--8---11-11--11---x-x--x---5-5--5------|

[Outro/Verse]
e|---------12-----------------------------------------|
B|------13----13------------8-8-8-8-8--8-8-8--8--8-8--|
G|---12----------12--9------8-8-8-8-8--8-8-8--8--8-8--|
D|-10------------------10---7-7-7-7-7--7-7-7--7--7-7--| (4x)
A|--------------------------8-8-8-8-8--8-8-8--8--8-8--|
E|----------------------------------------------------|

(Hold On until the drums kick in.)     
e|--------------------|               
B|--------------------|               
G|--------------------|      
D|-10-10-1-10-10-10---|               
A|--------------------|               
E|-8--8--8--8--8--8---|

(Solo in back of the Chorus part)
e|-5/8/10/12-x-x-8/10/12/15-|
B|-----------x-x------------|
G|-5/8/10/12-x-x-8/10/12/15-|
D|--------------------------|
A|--------------------------|
E|--------------------------|               

[Chorus]
        C7         Eb/7      F9       Am
e|------8----------11-----------------5------|
B|------11---------11--------8--------5------|
G|------9----------12--------8--------5------|
D|------8----------11--------7--------7------| (4x)
A|------10---------13--------8--------7------|
E|-8-8--8---11-11--11---x-x--x---5-5--5------|

[Outro/Verse]
e|---------12------------------------------------------|
B|------13----13------------8-8-8-8-8--8-8--8--8--8-8--|
G|---12----------12--9------8-8-8-8-8--8-8--8--8--8-8--|
D|-10------------------10---7-7-7-7-7--7-7--7--7--7-7--| (4x)
A|--------------------------8-8-8-8-8--8-8--8--8--8-8--|
E|-----------------------------------------------------|


************************************

| x    Dead note
| ~    Vibrato
| (n)  Ghost note
| *    Natural harmonic
| b    Bend
| h    Hammer-on
| p    Pull-off
| /    Slide up
| \    Slide down

************************************
Suggest correction
comments
print report bad tab
guest
You may want to rate the tab now too:
select rating
Wanna post a correction for this tab? Suggest correction