Oops, an error
Loading. Please wait.

Untitled Song Tab

4,263 views 1 this week
2 commentsread comments
1 2 3 4 5
x 5
add to favorites
launch autoscroll
font size
0
reset
how to read this tab
guitar tuner
Autoscroll
slow
fast
+/-
esc
set tempo
stop
Help us to improve Ultimate-Guitar.com Take our survey!
×
Author
Untitled Song - 1999 by John Mayer

Tabbed by: T_T
Email:  heavyrayne@ymail.com

In the version of this song that I was listening to, the sound of John Mayer's voice
overpowered the sound of his guitar, thus making it difficult to hear every note clearly in
song.  I know I left out some notes.  To aid you in following my loosely interpreted 
I inserted some the lyrics.  The lyrics are placed underneath the note that they should
sang on.  The lyrics were taken from another tab of this song on this site.  If there 
any misunderstandings that are relevant to this tab, you may send me an email at the 
listed above.  Comment and/or rate if it suits you.


LEGEND:

x  = mute
/  = slide down
\  = slide up
h  = hammer on
p  = pull off
(1)= first verse/pre-chorus
(2)= second verse/pre-chorus
(3)= third verse/pre-chorus

INTRO:

e -|----------------------------------x---------|
B -|--------1---------3---------------x---------|
G -|------0---------0-----------0---0-x-0---0---|
D -|----2---------4---------------4---x---4-----|
A -|--3--------/5-------------3-------x---------|
E -|----------------------------------x---------|

e -|----------------------------------------------------|
B -|--------0-----0---------0----------0---0---------5--|
G -|------2---2-----------6----------2-----------6---6--|
D -|----2-------2-------6----------2-----2-------6------|
A -|--0---------------4----------0-------------4---4----|
E -|----------------------------------------------------|

VERSES 1 and 2:

e -|--------------------------------------------------------0------------|
B -|--------0----------5----------0----------4--5---------------------5--|
G -|------2----------6----------2----------6-------------2----------6----|
D -|----2----------6----------2----------6-------------2----------6------|
A -|--0----------4----------0----------4-------------0----------4--------|
E -|---------------------------------------------------------------------|
 (1)"Basically...changed... We're...   home...      You...     back..."

 (2)"So we...    all my...  smiles...  told...      she said...get..."

PRE-CHORUS 1, 2, and 3:

(Part I)
e -|-----------------------------0-----------|
B -|--------5---------5-------------------5--|
G -|------7---------7---------2---------6----|
D -|----7---------7---------2---------6------|
A -|--5---------5---------0---------4--------|
E -|-----------------------------------------|
  (1)"Your bed...         father..."

  (2)"freedom...          quickly..."

  (3)"traded...           live..."


(Part II)
e -|------------0---------------------------------------------------------|
B -|----------------2---0---------4-5p4-----------0-------------5---------|
G -|----------2---2---2---------6-------4-------2---2---------6-----6-----|
D -|--------2-----------------6---------------2-------2-----6----------6--|
A -|------0-----------------4---------------0-------------4-------4-------|
E -|----------------------------------------------------------------------|
  (1)"For you....           Oh....          Oh...         Oh"

CHORUS:
(The chords for this section are listed for those who prefer to strum.)

          C#m        A         E
e -|-------------------------------------------------------|
B -|---------------------------------------------  PLAY  --|
G -|--------6--------------------1----------1----  THIS  --|
D -|--------6----------7---------2----------2----  FIVE  --|
A -|--x-0-4--------x---7-----x----------x-2------ TIMES  --|
E -|--x------------x-5-------x-0--------x------------------|
      "and nobody    understands"
      "and nobody...           care"
      "'Bout...                man"
      "Comin'...               years"
      "Givin' up...            years"


VERSE 3:

e -|--0---------------------------------------------------------|
B -|--0--------------------0-5-4-0------------------5-----------|
G -|--2------------------2-----------66-----------6-6-----------|
D -|--2----------------2-------------44-4---4---4---------------|
A -|--0------------0-----------------44---4---4-----------------|
E -|------------------------------------------------------------|
        "Unpack... in  living...     smell...     perfume"


e -|--------0--------------------|
B -|----------4-2-0-------4-6----|
G -|------2----------------------|
D -|----2---------------6--------|
A -|--0---------------4----------|
E -|-----------------------------|
     "Came...         went..."


BRIDGE:

e -|--------0--------2----------0--------------0-----2----|
B -|-----------------2----------2------------0-------2----|
G -|------2----------2----------2----------2---------2----|
D -|----2------------4----------2--------2-----------4----|
A -|--0--------------4------x---0------0-------------4----|
E -|-----------------2------x------------------------2----|
                "She says...    never...          perhaps"

e -|---------------0-------0------|
B -|---------------0-------0------|
G -|-------2-------2-------4------|
D -|--2----4-------2-------4------|
A -|-------4-------0-------2------|
E -|-------2----------------------|
     "I'll always  call    this"


          C#m        A         E
e -|-----------------------------------------------|
B -|-----------------------------------------------|
G -|--------6--------------------1----------1------|
D -|--------6----------7---------2----------2------|
A -|--x-0-4--------x---7-----x----------x-2--------|
E -|--x------------x-5-------x-0--------x----------|
      "Home"

          C#m          A         E
e -|-------------------------------------------------|
B -|-------------------------------------------------|
G -|--------6----------------------1----------1------|
D -|--------6------------7---------2----------2------|
A -|--x-0-4----------x---7-----x----------x-2--------|
E -|--x--------------x-5-------x-0--------x----------|
        "This home"



OUTRO:

          C#m             A         E
e -|----------------------------------------------------|
B -|----------------------------------------------------|
G -|-----------6----------------------1----------1------|
D -|-----------6------------7---------2----------2------|
A -|--x-/5-5-4----------x---7-----x----------x-2--------|
E -|--x-----------------x-5-------x-0--------x----------|

          C#m             A         E
e -|----------------------------------------------------|
B -|----------------------------------------------------|
G -|-----------6----------------------1----------1------|
D -|-----------6------------7---------2----------2------|
A -|--x-/5-5-4----------x---7-----x----------x-2--------|
E -|--x-----------------x-5-------x-0--------x----------|

          C#m             A         E
e -|----------------------------------------------------|
B -|-------------------------------------------5--------|
G -|-----------6----------------------1--------6--------|
D -|-----------6------------7---------2----------6------|
A -|--x-/5-5-4----------x---7-----x----------x----------|
E -|--x-----------------x-5-------x-0--------x----------|


          C#m          A         E
e -|-----------------------------0--0----------------|
B -|-----------------------------0--0-0--------------|
G -|--------6--------------------1-------------------|
D -|--------6------------7-------2-------------------|
A -|--x-0-4----------x---7-----x-2-------------------|
E -|--x--------------x-5-------x-0-------------------|


ORDER:

Intro
Verse 1
Pre-chorus part I
Pre-chorus part II
Verse 2
Pre-chorusI
Chorus 
Verse 3
Pre-chorus part I
Chorus
Bridge
Outro


LYRICS


Basically nothin' has changed
She explained
We're so happy you're home again
You take the winter
To get back on your feet
Your bed is bein' made
And your father washed the sheets for you


So we talked a while
About all my woes
Their smiles worse than I told you so's
When she said to wash up and get to bed
I knew the freedom I had learned
I'd learn quickly to forget


And nobody understands
And nobody seems to care
'Bout the compromise of a man
Comin' home after five long years
Givin' up after five long years


Unpacked my bags in the livin' room
Smell the last of a sweet perfume
Came from the girl that went with the world that I traded in today
Just to live a safer way


And nobody understands
And nobody seems to care
'Bout the compromise of a man
Comin' home after five long years
Givin' up after five long years


She says you're always welcome here
You'll never be alone
Perhaps that's now my greatest fear
I'll always call this home
This home
Suggest correction
comments
print report bad tab
2 comments total.
0 reply
javi.uriegas 10 Apr 12, 2015 05:45 PM

in the verse i hear a 4 in the G string instead of the 2

0 reply
javi.uriegas 10 Apr 23, 2016 12:02 AM

wrong in the g string it is in the 4th fret not 2nd . . . . . . . .

guest
You may want to rate the tab now too:
select rating
Wanna post a correction for this tab? Suggest correction