Oops, an error
Loading. Please wait.

Victoria Tab

version 2
version 2

Whole song

Interactive

63,081 views 132 this week
1 commentread comment
1 2 3 4 5
x 32
add to favorites
launch autoscroll
font size
0
reset
how to read this tab
guitar tuner
Autoscroll
slow
fast
+/-
esc
set tempo
stop
Help us to improve Ultimate-Guitar.com Take our survey!
×
Standard tuning

[Intro]
e|------------------------------------------------------------------------|
B|-------------1--------------3----------------------------1----------1---|
G|-------------2--------------2-----------0-------------0----------0------|
D|-------2--------------0--------------0-----0h2-----2----------0---------|
A|----0-----0-------------------------------------3-----------2-----------|
e|----------------3--2-----2-----2--3-------------------------------------|

e|--------------------------------------------------------|
B|-------------1--------------3--------------3--------3---|
G|-------------2--------------2-----------0--------0------|
D|-------2--------------0--------------4--------4---------|
A|----0-----0---------------------------------------------|
e|----------------3--2-----2-----2--3---------------------|

[Verse 1]
e|------------------------------------------------------------------------|
B|-------------1--------------3----------------------------1----------1---|
G|-------------2--------------2-----------0-------------0----------0------| (x3)
D|-------2--------------0--------------0-----0h2-----2----------0---------|
A|----0-----0-------------------------------------3-----------2-----------|
e|----------------3--2-----2-----2--3-------------------------------------|

e|--------------------------------------|
B|-------------1--------------3---------|
G|-------------2--------------2-----0---|
D|-------2--------------0-----------0---|
A|----0-----0-----------------------0---|
e|----------------3--2-----2-----2--3---|

(All other verses)
e|----0-----------0---0---|
B|----1---3---3---1---1---|
G|----2---2---0---0---0---| (x3)
D|----2---0---0---2---0---|
A|----0---x---x---3---2---|
e|--------2---3-----------|

e|--------|
B|----3---|
G|----2---|
D|----0---|
A|----x---|
e|----2---|

[Pre-chorus]
e|----7--7h10---10-------2--3---|
B|----7--7h8----8--------3--3---|
G|----7--7------7--(x4)--2--5---|
D|----7--7h9----9--------4--5---|
A|----7--7------7--------2--3---|
e|----0--0------0--------x--x---|

[Chorus]
e|------------------------------------|
B|----3---3---3---3---3---3---3---2---|
G|----2---1---0---2---0---2---2---2---| (x2)
D|----0---0---0---0---0---0---2---2---|
A|------------x---x---x---x---0---0---|
e|------------3---2---3---2-----------|

[Solo]
e|----0--0--0--0--0--0--s/-0--------------------|
B|----5--5--5--5--5--5--s/-3--------3-----------|
G|-------------------------------0--------------| (x2)
D|----------------------------4--------4/2--0---|
A|----------------------------------------------|
e|----------------------------------------------|

e|----0--0--0--0--0--0--/--0--------------------------------------------------|
B|----5--5--5--5--5--5--/--7---5----------0h1--3--1----------3--5--5h7p5--3---|
G|--------------------------------4/2--0--------------------------------------|
D|---------------------------------------------------2--2/4-------------------|
A|----------------------------------------------------------------------------|
e|----------------------------------------------------------------------------|

[Outro]
e|------------------------------------------------------------------------|
B|-------------1--------------3----------------------------1----------1---|
G|-------------2--------------2-----------0-------------0----------0------| (x3)
D|-------2--------------0--------------0-----0h2-----2----------0---------|
A|----0-----0-------------------------------------3-----------2-----------|
e|-----------------3--2-----2-----2--3------------------------------------|

[Ending]
e|--------|
B|----3---|
G|----2---|
D|----0---|
A|----x---|
e|----2---|


************************************

| h  Hammer-on
| x  Dead note
| /  Slide up
| p  Pull-off

************************************
Suggest correction
comments
print report bad tab
1 comment total.
0 reply
blok31092 36 Feb 26, 2013 01:01 AM

Perfect! This song is written so beautifully

guest
You may want to rate the tab now too:
select rating
Wanna post a correction for this tab? Suggest correction