Oops, an error
Loading. Please wait.

Volkswagen Commercial Tab

version 1
version 1

Whole song

9,083 views 6 this week
3 commentsread comments
1 2 3 4 5
x 3
add to favorites
launch autoscroll
font size
0
reset
how to read this tab
guitar tuner
×
Best way to learn
"Volkswagen Commercial"
Autoscroll
slow
fast
+/-
esc
set tempo
stop
Author
e|----3----|
B|-0~-3----|
G|----0----|
D|----0----|
A|----2----|
E|----3----|

e|----15\\--6^--3--|---3----------------------|
B|-----------------|-----6p3----3-3-----------|
G|-----------------|---------5----------------|
D|-----------------|----------------5-3-0-----|
A|-----------------|--------------------------|
E|-----------------|--------------------------|
                                              .
e|----15\\--6^--3--|---3----------------------|
B|-----------------|-----6p3----3-3-----------|
G|-----------------|---------5----------------|
D|-----------------|----------------5-3-0-----|
A|-----------------|--------------------------|
E|-----------------|--------------------------|
                                              .
e|--//15----6^--3--|---3-----------14-15vvv---|
B|-----------------|-----6p3--------X--X------|
G|-----------------|---------5----------------|
D|-----------------|--------------------------|
A|-----------------|--------------------------|
E|-----------------|--------------------------|

e|--/19--X-X-X---20-19-----------------|-(3v)--|
B|--/20--X-X-X--(20)---20--------------|-(3v)--|
G|-------X-X-X-------------17-17-15----|-(0v)--|
D|----------------------------------17-|-(0v)--|
A|-------------------------------------|-(2v)--|
E|-------------------------------------|-(3v)--|

e|-----------10^-10r-8h10-7----------------------------------|
B|---3/5--8---X---X---------8-------3------------------------|
G|-----------------------------5-3h5-5p3---------------------|
D|---------------------------------------5-------------------|
A|-----------------------------------------3p1-3-5-3-1-------|
E|-----------------------------------------------------3-----|


(step 1. get a car.  Step 2. Slide your guitar;))
e|--X//////X\\\\\\\\\-------|
B|--X//////X\\\\\\\\\-------|
G|--X//////X\\\\\\\\\-------|
D|--X//////X\\\\\\\\\-------|
A|--X//////X\\\\\\\\\-------|
E|--X//////X\\\\\\\\\-------|

e|-------------------------------|
B|-------------------------------|
G|--3vvv----------------X-X------|
D|-------3p0------5vvv--X-X-8vvv-|
A|----------5p3\1-------X-X------|
E|-------------------------------|

e|-----------10^-10r-8h10-7----------------------------------|------|
B|---3/5-8----X---X---------8-------3------------------------|------|
G|-----------------------------5-3h5-5p3---------------------|------|
D|---------------------------------------5-------------------|--17--|
A|-----------------------------------------3p1-3-5-3-1-------|--17--|
E|-----------------------------------------------------3-----|--15--|
Suggest correction
Give kudos to tab author, rate the tab!
1 2 3 4 5
comments
print report bad tab
3 comments total.
0 reply
Minuriel 21 Aug 17, 2009 07:17 PM

Lol congrats for tabbing this out! People might think it's pointless, but I think it's cool!!

0 reply
guitar-guy01 799 Aug 22, 2009 06:15 AM

no probs, hooked on that video

0 reply
bells44 31 Jan 03, 2010 11:12 AM

haha holy shit, i was sitting here doing work and that commercial popped into my head, along with " i wonder if someone's tabbed that?"... never would've thought a "Volkswagen" search would actually yield anything haha. sweet deal man and thanks for tabbing this out, gotta love his little musical stints that go unnoticed by most people

guest
You may want to rate the tab now too:
select rating
Wanna post a correction for this tab? Suggest correction