Oops, an error
Loading. Please wait.

Vultures Bass

version 1
version 1

Whole song

Interactive

37,339 views 42 this week
1 commentread comment
1 2 3 4 5
x 9
add to favorites
launch autoscroll
font size
0
reset
guitar tuner
backing track
0:00
0:00
×
Best way to learn
"Vultures"
Autoscroll
slow
fast
+/-
esc
set tempo
stop
Author
this is just an idea of what pino does he add's licks and stuff so you'll have to use 
improv skills for that. ohh and it's not tabed out to the rythym sorry, but it's not hard 
pick up on.


Intro/Verse
G|---------------------------------------------------------------------------|
D|---------------------------------------------------------------------------|
A|------7----9--------7----9----------7----9----------7----9----------7----9-|
E|2---5----7----2---5----7----2-----5----7----2-----5----7----2-----5----7---|
and repeat till the chorus


Chorus
G|---------------------------------------------------------------------------|
D|---------------------------------------------------------------------------|
A|----------7-7------7-7---------9-9-------9-9-------------------------------|
E|-----5-5-------5-5-------7-7--------7-7------------------------------------|
repeat till vers starts up again

guitar solo. (what the basss plays)
G|---------------------------------------------------------------------------|
D|---------------------------------------------------------------------------|
A|------7----9--------7----9----------7----9----------7----9----------7---9--|
E|2---5----7----2---5----7----2-----5----7----2-----5----7----2-----5----7---|

bridge

G|---------------------------------------------------------------------------|
D|---------------------------------------------------------------------------|
A|----------7-7------7-7---------9-9-------9-9-------------------------------|
E|-----5-5-------5-5-------7-7--------7-7------------------------------------|


hope this helps.
Suggest correction
comments
print report bad tab
1 comment total.
0 reply
stoomat16 10 Mar 08, 2013 05:22 AM

A|------7----9--------7----9--------7----9--------7----9--------7----9-|
E|2-R-5----7----2-R-5----7----2-R-5----7----2-R-5----7----2-R-5----7---|

guest
You may want to rate the tab now too:
select rating
Wanna post a correction for this tab? Suggest correction