Oops, an error
Loading. Please wait.

Vultures Tab

version 1
version 1

Live

Whole song

Interactive

13,482 views 48 this week
4 commentsread comments
1 2 3 4 5
x 12
add to favorites
launch autoscroll
font size
0
reset
how to read this tab
guitar tuner
Autoscroll
slow
fast
+/-
esc
set tempo
stop
Help us to improve Ultimate-Guitar.com Take our survey!
×
Author
Difficulty
intermediate
Tuning: Standard

[Intro/Main riff]
e|---------------------------------------------------------------------------|
B|---------------------------------------------------------------------------|
G|------------13~------------------13-13sb-----------------------------------|
D|-14sb-------14~--------14sb------14-14-------------------------------------|
A|-14sb--x-16------x-16--14sb-x-16---------x-16------------------------------|
E|---------------------------------------------------------------------------|

   (Sometimes, he plays this)
e|---------------------------------------------------------------------------|
B|---------------------------------------------------------------------------|
G|------------13~------------------13--13sb----------------------------------|
D|-14sb-------14~--------14sb------14--14------------------------------------|
A|-14sb--x-16------x-16--14sb-x-16---16-----x-16-----------------------------|
E|---------------------------------------------------------------------------|

   (It's fun to use some extra 16th frets in stead of a slap. John does that in
   this performance, which spices it up a bit.)
e|---------------------------------------------------------------------------|
B|---------------------------------------------------------------------------|
G|-------------13~--------13--------13--------13-----------------------------|
D|-14sb--------14~--------14--------14--------14-----------------------------|
A|-14sb--x-16-------x-16------x-16------x-16------x-16-----------------------|
E|---------------------------------------------------------------------------|
   'And I'll come through...'

[Solo 1]
e|---------------------------------------------------------------------------|
B|---------------------------------------------------------------------------|
G|-----------14~--------13~----------------------------------14b16-14b16-14~-|
D|-----14-16------------14~----------------------------14-16-----------------|
A|-/16-------------x-16-----x-16\----14/16-14/16-14/16-----------------------|
E|---------------------------------------------------------------------------|

e|---------------------------------------------------------------------------|
B|---------------------------------------------------------------------------|
G|-13~------------------------13-13sb----------------------------------------|
D|-14~--16p14h16--------14----14-14------------------------------------------|
A|---------------16\----14h16---------x-16-----------------------------------|
E|---------------------------------------------------------------------------|

   (Then back to the main riff again. I guess you know it by now.)

[Solo 2]
e|---------------------------------------------------------------------------|
B|---------------------------------------------------------------------------|
G|-16b18-15b16--------14---------14-16b18r17b18-------13~--------------------|
D|--------------16-16----16~16~-----------------------14~---16p14h16---------|
A|-----------------------------------------------x-16----------------16\-----|
E|---------------------------------------------------------------------------|

e|---------------------------------------------------------------------------|
B|-----------------------------------------------------17--------------------|
G|-------13-13sb--------16b18-16b18-16b18--13-----16sb----16-16-14-----------|
D|-14----14-14-----------------------------14-16-----------------------------|
A|-14h16---------x-16--------------------------------------------------------|
E|---------------------------------------------------------------------------|

e|---------------------------------------------------------------------------|
B|-----------------------------------------14--14--17-b18-b19-b19------------|
G|-16-16sbrp14---------13-16sbrp14-------------------------------------------|
D|-------------16-16~--14----------16-16~------------------------------------|
A|---------------------------------------------------------------------------|
E|---------------------------------------------------------------------------|

e|---------------------------------------------------------------------------|
B|------------------------------------------------------------------17-------|
G|----------13-16sbrp14----13---------13-16sbrp14----14---------13--16-------|
D|-14-x-----14----------16-14---------14----------16----14------14-----------|
A|-14----16-------------------16-x-16----------------------x-16---------x----|
E|---------------------------------------------------------------------------|

e|---------------------------------------------------------------------------|
B|-16-14---------------------------------17--------16-14---------------------|
G|----14---13-----14-----14-16sb-16-14---16----13-----14--13-13---16-14------|
D|---------14--16----16------------------------14---------14-14--------------|
A|-------x----------------------------------x-------------------x------------|
E|---------------------------------------------------------------------------|

e|---------------------------------------------------------------------------|
B|---------------------------------------------------------------------------|
G|-13-13---------14-------------------------------------13~------------------|
D|-14-14---14h16-----------------------------14sb-------14~------------------|
A|-------x----------14-16--14h16p14----------14sb--x-16------x-16\-----------|
E|----------------------------------17-14-17---------------------------------|

e|---------------------------------------------------------------------------|
B|---------------------------------------------------------------------------|
G|---------13-13sb-13-16-----------------------------------------------------|
D|-14------14-14sb-16-16-----------------------------------------------------|
A|-14-x-16----------------\--------------------------------------------------|
E|---------------------------------------------------------------------------|

e|---------------------------------------------------------------------------|
B|---------------------------------------------------------------------------|
G|---------------------------------------------------------------------------|
D|---------------------------------------------------------------------------|
A|---------------------------------------------------------------------------|
E|---------------------------------------------------------------------------|
   'Wheels up!' He stops playing her.

e|---------------------------------------------------------------------------|
B|---------------------------------------------------------------------------|
G|---------------------------------------------------------------------------|
D|------------------------------------------------------14---16--------------|
A|------------------------------------------------------14-x-16-x------------|
E|---------------------------------------------------------------------------|
   'I can't seem to shake the vultures off of my trail'

    (Back to the mainriff again.)

Don't give up, give up

(Just play the mainriff.)
   (After he sings this line, he plays some cool licks.) 
e|---------------------------------------------------------------------------|
B|---------------------------------------------------------------------------|
G|----14----14h16-14~--------------------------------------------------------|
D|-16----16------------16p14----16-14----------------------------------------|
A|---------------------------16-------------14-------------------------------|
E|------------------------------------17-14----17-14-------------------------|

e|---------------------------------------------------------------------------|
B|-17~--16p14----14~---------------------------------------------------------|
G|------------16-----16------------------------------------------------------|
D|-------------------16-14-16----16-14---------------------------------------|
A|-------------------------16-14-------16-14---------------------------------|
E|-------------------------------------------17-14---------------------------|

e|---------------------------------------------------------------------------|
B|-16--16-16---16--16-16----14-----------------------------------------------|
G|-14--14-14---14--14-14--16---16-14-----------------------------------------|
D|---------------------------------------------------------------------------|
A|---------------------------------------------------------------------------|
E|---------------------------------------------------------------------------|

e|---------------------------------------------------------------------------|
B|-------------16------16--16-16--------------------------------------16--14-|
G|-------------14------14--14-14--------------13~--16-----------------14--14-|
D|----------------------------------14sb------14~-----------14sb-------------|
A|----------------------------------14sb-x-16---------16\---14sb-x-----------|
E|---------------------------------------------------------------------------|
   'No, don't you dare!'

e|---------------------------------------------------------------------------|
B|--------------------------------------------17----16-14--------------------|
G|-16-14----------------13~-------------------16----16-14---x-16-14----------|
D|-------16--14sb-------14~--16----14h16---14----14--------x--16-14----------|
A|-----------14sb--x-16---------16-------x----------------x------------------|
E|---------------------------------------------------------------------------|
                                                
e|----------------------|----------------------------------------------------|
B|----------------------|-----------16-14--14-------------------16-14--------|
G|----------------------|--14-------14-14--16--13~-------14-13--14-14--------|
D|-16p14----16-14-------|--14----14------------14~--16---16-16----------16---|
A|-------16-------------|-----------------------------x----------------------|
E|----------------17-14-|----------------------------------------------------|
                         (He adds a lot of muted notes from here, just place 
                         them anywhere (and swing your hips))

e|---------------------------------------------------------------------------|
B|---------------16---x16-14-------------------------16-14-------------------|
G|-13~--------14-14---x14------16-13~-------14-x-----14-14---x16-14----------|
D|-14~---16---14---------------14-14~--16---16-14------------x14-14----------|
A|---------x--------x--------x---------16x--------x--------x--------x--------|
E|---------------------------------------------------------------------------|
                                                                     
e|---------------------------------------------------------------------------|
B|----16---16----------16-14-------------16---16--14-----16-14---16-14-------|
G|----14---14--13------14-14---13--------14---14-----------------14----------|
D|--x-14-x-14--14--16----------14-16---x-14-x-14--16-----14-16------16-------|
A|---------------------------x----16x---------------x---------x-------x------|
E|---------------------------------------------------------------------------|

e|---------------------------------------------------------------------------|
B|----16---16----------16-14-------------16---16--14----16-------------------|
G|----14---14--13------14-14---13--------14---14--14----14-------------------|
D|--x-14-x-14--14--16----------14-16---x-14-x-14--16----14-16-----16-16------|
A|---------------------------x----16-----------------x-------x---------x-----|
E|---------------------------------------------------------------------------|

(From here, drums and bass stop playing. This part is kinda...hard.)

e|-------14--------------------------------14--------------------------------|
B|----17-14-----------------------------17-14--------16-16-14---14-----------|
G|----16----13-------16-14--------------16----13-----14-14-14---14-----------|
D|-16-14----14-16-x--16-14-16---14------14----14-16--------16---14-----------|
A|-------------16------------x-----16------------16----------x---------------|
E|---------------------------------------------------------------------------|
                                      
e|----14-----------------------------14--------------------------------------|
B|-17-14--------------------------17-14-16-14-----17---16-14--16-------------|
G|-16----16-14-----13-13----------16----14-14-----16---16-14--16-------------|
D|-14----16----16--14-14-16-------14------------x-14-x-14-14--14-------------|
A|-----------------------16--16x-------------x-------------------------------|
E|---------------------------------------------------------------------------|

e|---------------------------------------------------------------------------|
B|---16-16-16-16-16---16-16-16-16------------16-16-16-16-16---16-16-16-16----|
G|---14-14-14-14-14---14-14-14-14------------14-14-14-14-14---14-14-14-14----|
D|-x-------------------------------------------------------------------------|
A|---------------------------------------------------------------------------|
E|------------------x-------------12--14--12----------------x----------------|

e|---------------------------------------------------|
B|------------16-16-16-16-16---16-16-16-16-----------|
G|------------14-14-14-14-14---14-14-14-14-----------|
D|---------------------------------------------------|
A|---------------------------------------------------|
E|-12--14--12-------------------------------12--14---|
   T   T   T                                T   T

e|--------17-16-------14-------------------------------|
B|-----16-16-16----14-14-17--------14------------------|
G|----14----------14-----16-----14-14-16----14sb~------|
D|---14----------x-------------14-----16---x------16---| (All these x's are
A|--x-------------------------x-----------x------------|  muted notes)
E|-----------------------------------------------------|
                        
e|---------------------------------------------------------------------------|
B|---------------------------------------------------16---14-----------------|
G|----13-----13----13--------------------------13------------16p14--13-------|
D|----14-----14----14-16-----------------------14----14---16--------14-16p14-|
A|--------------------16-14---16-14----------------x----------------------14-|
E|-x------x------x------------------17sb--14---------------------------------|
                                          T

e|-------------------------------------------16--14--------------------------|
B|-----16-----16---14--14-------14-14-----17-17--14--17--14------------------|
G|-----14-----14---16--14-------16-14-----16---------16--14--16--13----------|
D|-----14-----14-----------16--------------------------------16--14--16------|
A|---------x--------------------------x------------------------------16------|
E|-14------------------------------------------------------------------------|
   T  
e|----------------------------16\--------------------------------------------|
B|-------------------14-------14\--------------------------------------------|
G|----------13-------14t16---------------------------------------------------|
D|-14-------14t16------------------------------------------------------------|
A|-14t16---------------------------------------------------------------------|
E|---------------------------------------------------------------------------|


************************************

| ~  Vibrato
| x  Dead note
| b  Bend
| /  Slide up
| \  Slide down
| h  Hammer-on
| p  Pull-off
| r  Release
| t  Tapping

************************************
Suggest correction
comments
print report bad tab
4 comments total. Showing first comments.
+1 reply
Vegetto 69 May 20, 2013 03:56 PM

Man,this is AWESOME! Thanks!!!!

0 reply
horasyo647 10 Sep 29, 2013 07:12 AM

thanks! this is cool.

0 reply
JReiners 10 Dec 11, 2013 04:13 PM

Incredibly accurate, EPIC job!

guest
You may want to rate the tab now too:
select rating
Wanna post a correction for this tab? Suggest correction