Oops, an error
Loading. Please wait.

Vultures Tab

version 3
version 3

Whole song

Interactive

11,423 views 9 this week
5 commentsread comments
1 2 3 4 5
accurate
x 3
add to favorites
launch autoscroll
font size
0
reset
how to read this tab
guitar tuner
Autoscroll
slow
fast
+/-
esc
set tempo
stop
Help us to improve Ultimate-Guitar.com Take our survey!
×
Author
Difficulty
intermediate
-------------------------------------------------------------------------------
                             SONG NAME - Band Name
-------------------------------------------------------------------------------
Tabbed by: Punk-man12
Email: yourmom_697@hotmail.com

Hey guys, this is 100% correct. Listen to the song for timing. I'll put the lyrics and 
order at the bottom. By the way, this is my first tab. :)

Tuning: Standard
 For this riff i usually slap my thumb against the E, just for that funky feel.

RIFF 1
e|-----------------------------|
B|o-------------------------o--|
G|--------------- 13-----------|  That riff takes the entire rhythm section for the song, couple
D|--14-----16----14---16-------|  of variations in the chorus. But other than that this is the main
A|o-14-------------------------|o |  riff.
E|-------x---------------------|
             Slap thumb
  FILL 1
e|------------------------------------------------------------|
B|------------------------------------------------------------|  Fill after first chorus.
G|--------------14~--------------------14h16---14h16--14~-----|
D|-----14--16------------------14--16-------------------------|
A|--16----------------------14--------------------------------|
E|------------------------------------------------------------|


Ladies and Gentleman what you've all been waiting for! The solo.

 SOLO
e|-------------------------------------------------------------------------------|
B|-------------------------------------------------------------------------------|
G|---------16fb-16----------14---------------14---16fb-16fb---/16-----/14-16-----|
D|--------------------16-16----16-16-16~-------------------------16--------------|
A|-------------------------------------------------------------------------------|
E|-------------------------------------------------------------------------------|

e|-----------------------------------------------------------------------------|
B|-------------------------------17--------------------------------------------|
G|----16fb--16fb--16fb----16-16-------16hb-16-14-----16fbr16-14----------------|
D|--------------------------------------------------------------16-------------|
A|-----------------------------------------------------------------------------|
E|-----------------------------------------------------------------------------|


e|---------------------------------|
B|---------------------------------|
G|------14--16FBR16---14-----------|
D|-----X------------------16-16----|
A|----X----------------------------|
E|---X-----------------------------|
end of solo.

Repeat main riff until end.
Suggest correction
Give kudos to tab author, rate the tab!
1 2 3 4 5
comments
print report bad tab
5 comments total. Showing first comments.
0 reply
ukfanzdp 10 wrote on July 9 2009, 06:27 pm

Dude that's terrible..... the main riff and fill one is wrong...

0 reply
gibsonsg23 10 wrote on July 16 2009, 01:07 am

my ****ing ass this is 100%

0 reply
casesomething 10 wrote on July 19 2009, 07:16 am

fill is missing last part solo is wrong... meh. fill should have:

e|---------------
B|---------------
G|---------------
D|--16p14--16\---
A|---------------
E|---------------
beginning is right just add that

guest
You may want to rate the tab now too:
select rating
Wanna post a correction for this tab? Suggest correction