Oops, an error
Loading. Please wait.

Vultures Tab

version 4
version 4

Whole song

Interactive

279,251 views 414 this week
16 commentsread comments
1 2 3 4 5
excellent!
x 58
add to favorites
launch autoscroll
font size
0
reset
how to read this tab
guitar tuner
Autoscroll
slow
fast
+/-
esc
set tempo
stop
Help us to improve Ultimate-Guitar.com Take our survey!
×
Author
Difficulty
intermediate
[Intro]

E|---------------------------------------------------------------------|
B|---------------------------------------------------------------------|
G|------------13sb-(16)-----------------13-13b-------------------------|
D|-14sb-------14--------------14b-------14-14--------------------------|
A|-14sb-----------------16----14b----------------16--------------------|
E|-------x-------------------------x-----------x-----------------------|

For this riff, play with thumb and middle finger pinching the 2 strings.


[Solo 1st Chorus]

E|---------------------------------------------------------------------|
B|---------------------------------------------------------------------|
G|----------14~~----------------------14h16-14h16-14~~-----------------|
D|----14-16---------------------14-16------------------16p14-16----16\-|
A|-16------------------------16----------------------------------------|
E|---------------------------------------------------------------------|


[Verse]

E|---------------------------------------------------------------------|
B|---------------------------------------------------------------------|
G|------------13sb-(16)-----------------13-13b-------------------------|
D|-14sb-------14--------------14b-------14-14--------------------------|
A|-14sb-----------------16----14b----------------16--------------------|
E|-------x-------------------------x-----------x-----------------------|


[Chorus]

E|---------------------------------------------------------------------|
B|---------------------------------------------------------------------|
G|------------13sb-(16)-----------------13-13b-------------------------|
D|-14sb-------14--------------14b-------14-14--------------------------|
A|-14sb-----------------16----14b----------------16--------------------|
E|-------x-------------------------x-----------x-----------------------|


[Solo] (x - scrab)

E|-------------------------------------------------------------------------|
B|-------------------------------------------------------------------------|
G|----16b-16b----------14b--------------14---16b-16b----14h16----14sb-16---|
D|---------------14-16-----16----16~-------------------x------16-----------|
A|----------------------------------------------------x--------------------|
E|---------------------------------------------------x---------------------|

E|-------------------------------------------------------------------------|
B|--------------------------14---17-----14---------------------------------|
G|----16b--16b--16b----16b-----------------16-14-----16b16-14--------------|
D|--------------------------------------------------------------16---------|
A|-------------------------------------------------------------------------|
E|-------------------------------------------------------------------------|

E|---------------------------------|
B|---------------------------------|
G|------14--16b16---14-------------|
D|-----x------------------16-16~---|
A|----x----------------------------|
E|---x-----------------------------|


[Verse]

E|---------------------------------------------------------------------|
B|---------------------------------------------------------------------|
G|------------13sb-(16)-----------------13-13b-------------------------|
D|-14sb-------14--------------14b-------14-14--------------------------|
A|-14sb-----------------16----14b----------------16--------------------|
E|-------x-------------------------x-----------x-----------------------|


[Chorus]

E|---------------------------------------------------------------------|
B|---------------------------------------------------------------------|
G|------------13sb-(16)-----------------13-13b-------------------------|
D|-14sb-------14--------------14b-------14-14--------------------------|
A|-14sb-----------------16----14b----------------16--------------------|
E|-------x-------------------------x-----------x-----------------------|


[Outro]

E|---------------------------------------------------------------------|
B|---------------------------------------------------------------------|
G|------------13sb-(16)-----------------13-13b-------------------------|
D|-14sb-------14--------------14b-------14-14--------------------------|
A|-14sb-----------------16----14b----------------16--------------------|
E|-------x-------------------------x-----------x-----------------------|


************************************

| x    thumb slap 
| sb   slight 
| x    Dead note
| (n)  Ghost note
| h    Hammer-on
| p    Pull-off
| b    Bend
| \    Slide down
| ~    Vibrato

************************************
Suggest correction
comments
print report bad tab
16 comments total. Showing first comments.
0 reply
fatty_mcgee56 52 wrote on July 8 2009, 01:46 pm

Perfect! nothings missing that i can find and its all completly accurate best tab for this on the site

+3 reply
Nickleback1192 10 wrote on July 9 2009, 05:43 am

Nice! agreed w/ fatty

0 reply
mr_sinistah 26 wrote on July 12 2009, 12:12 pm

agreed, it's poifet i thinks, you could miss some of the bends and it'd still sounds tops which is what i do, too much thinking when you gotta slight bend :( but i still bend most of the time. super tab

guest
You may want to rate the tab now too:
select rating
Wanna post a correction for this tab? Suggest correction