Oops, an error
Loading. Please wait.

Wait Till Tomorrow Tab

version 1
version 1

Acoustic

Whole song

15,841 views 6 this week
no commentswrite comment
1 2 3 4 5
please rate
add to favorites
launch autoscroll
font size
0
reset
how to read this tab
guitar tuner
Autoscroll
slow
fast
+/-
esc
set tempo
stop
Help us to improve Ultimate-Guitar.com Take our survey!
×
Author
Difficulty
Wez 459
novice
Wait Until Tomorrow (acoustic)
Wesley McLaughlin
Tuning: Half Step down

Intro

|--------------------------------------------------------|
|-9h10--9h10--9------------------7h8--7h8--7-------------|
|-9-----9-----9--x-x-------------7----7----7-------------|(x2)
|-9h11--9h11--9--x-x-----9-------7h9--7h9--7----7--------|
|----------------x-x-9h11--------------------7h9---------|
|---------------------------0-0---------------------0-0--|
*Use a lot of muting, and palm mutes (not so much palm).
*Fast tempo, remember to do two quick strikes of open E


Verse: 

|-----------------------------------------10-9--7--------|
|-------5------------------------------10-7--7--7--10----|
|-------6-------------7h9p7------------7--7--7--7--7-----|
|-------7---------*7h9-------9---------7--7--7--7--7-----|
|-------x------7h9---------------------7--x--x--x--7-----|
|--/5---5-/-9---------------------0-0--------------------|
*Sometimes he misses the middles one.
*Emphasis can be added to the 3rd one, pulling it off in a bluesy manner 


Pre-Chorus
"But now your tellin me..."
"Then I hear your say..."

|---------|
|--10-----|
|--9------|
|--9h11---|
|---------|
|---------|


Chorus:
"Think I'd better wait..."	* - "Gotta make sure its..."
					* - "Wont be around..."

|---0-------------|		|----0----------|
|---0----3----5---|		|----0------x---|
|---1----2----4---|(x3)    	|----0---x--x---|
|---2----5----7---|		|----0---x--x---|
|---2----x----x---|		|----0------x---|
|---0----3----5---|		|----0----------|
        (T)  (T)

*Alternate options for the chorus if you get bored with chords

|--------0—-2/4\2--------------------------------------|
|--------0--------------------3--------------5---------|
|--------1—-2/4\2—--0h1p0-----2h4p2----------4h6p4-----|
|------------------------------------------------------|
|------------------------------------5--xx----------7--|
|--0-0------------------------3---------xx---5---------|

|--------0—-2/4\2-----0----------------7/9\7-----|
|--------0-----------------3---------------------|
|--------1—-2/4\2—-0h1-----2h4p2-------7/9\7-----|
|------------------------------------------------|
|---------------------------------5--------------|
|--0-0---------------------3---------------------|

Outro:
“Tomorrow tomorrow, tomorrow…”

|---0-------------|		
|---0----3----5---|		
|---1----2----4---|(x3)    	
|---2----5----7---|		
|---2----x----x---|		
|---0----3----5---|		
Suggest correction
What's this?
You can suggest a correction to this tab. Community and Mods will review your correction and vote to approve or reject it.
comments
We did not receive enough feedback on this tab! Please rate:
print report bad tab
1 2 3 4 5
guest
You may want to rate the tab now too:
select rating
Please do not post tabs as comments. Select "correction" instead!