Oops, an error
Loading. Please wait.

Wait Till Tomorrow Tab

version 2
version 2

Whole song

62,938 views 84 this week
1 commentread comment
1 2 3 4 5
x 12
add to favorites
launch autoscroll
font size
0
reset
how to read this tab
guitar tuner
Autoscroll
slow
fast
+/-
esc
set tempo
stop
Help us to improve Ultimate-Guitar.com Take our survey!
×
Author
[Intro]
e|--------------------------------------------------------|
B|-9h10--9h10--9------------------7h8--7h8--7-------------|
G|-9-----9-----9--x-x-------------7----7----7-------------| x2
D|-9h11--9h11--9--x-x-----9-------7h9--7h9--7----7--------|
A|----------------x-x-9h11--------------------7h9---------|
E|---------------------------0-0---------------------0-0--|

[Verse]
e|-----0--x-x---------------------------------7-X--7-X--10--9----7---------|
B|-----5--x-x-----------x------------x--------7-X--7-X--7---7----7--10-----|
G|-----6--x-x----------x-(Rake)-7p9~--x-------7-x--7-X--7---7----7--7------|
D|-----7--x-x----7h9--x----------------x------7-X--7-X--7---7----7--7------|
A|-----0--x-x-7h9----x------------------x-----7-X--x-X--x---x----x---------|
E|---/-5--x-x----------------------------0---------------------------------|

(He does a little variation similar to this (minute 0:19)

e|-----0--0-x--0-0-0----7/9/7/9/7/9/7----7--7--7--7---10-9--7-10--7-12--10--7-|
B|-----5--5-x--5-5-5---------------------10-10-10-10--7--7--7-7---7--7--7---7-|
G|-----6--6-x--6-6-6----7/9/7/9/7/9/7----7--7--7--7---7--7--7-7---7--7--7---7-|
D|-----7--7-x--7-7-7---------------------7--7--7--7---7--7--7-7---7--7--7---7-|
A|-----0--0-x--0-0-0---------------------7--7--7--7---7--7--7-7---7--7--7---7-|
E|---/-5--5-x--5-5-5----------------------------------------------------------|

[Chorus]
(In the second time,the chorus) 
(with an harmonic)
e|----------2-/-4---2---0----------------------------------------|--12-h------|
B|---------------------------------3---3-----5---5--5------------|--12-h------|
G|---1--1---2-/-4---2---0----------2h4-2-----4h6-4--6------------|--12-h------|
D|---2--2----------------------2h4-------------------------------|--12-h------|
A|---2--2--------------------------------------------------------|--12-h------|
E|---0--0-------------------3----------------5---------0---------|--12-h------|

e|----------2-/-4---2---0----------------------7/9--7--9---------------------|
B|---------------------------------3---3-------------------------------------|
G|---1--1---2-/-4---2---0----------2h4-2-------7/9--7--9---------------------|
D|---2--2----------------------2h4-------------------------------------------|
A|---2--2--------------------------------------------------------------------|
E|---0--0-------------------3-------------------------------0----------------|


[Solo] 
(3:49)
(Pick these notes, as fast as you can.)
e|--16---14---12--10--9--7--9-----------------------------------------|
B|--------------------------------------------------------------------|
G|--16---14---13--11--9--7--9-----------------------------------------|
D|--------------------------------------------------------------------|
A|--------------------------------------------------------------------|
E|-------------------------------0------------------------------------|

e|--16---14---12--10--9--7--5--4--2-----------------------------------|
B|--------------------------------------------------------------------|
G|--16---14---13--11--9--7--6--4--2-----------------------------------|
D|--------------------------------------------------------------------|
A|--------------------------------------------------------------------|
E|----------------------------------------0---------------------------|

e|--16---14---12--10--9--7--9--10--12---------------------------------|
B|--------------------------------------------------------------------|
G|--16---14---13--11--9--7--9--11--13---------------------------------|
D|--------------------------------------------------------------------|
A|--------------------------------------------------------------------|
E|--------------------------------------0-----------------------------|

e|--16---14---12--10--9--7--8-----------------------------------------|
B|--------------------------------------------------------------------|
G|--16---14---13--11--9--7--8-----------------------------------------|
D|--------------------------------------------------------------------|
A|--------------------------------------------------------------------|
E|--------------------------------------------------------------------|

[Intro riff]
e|--------------------------------------------------------|
B|-9h10--9h10--9------------------7h8--7h8--7-------------|
G|-9-----9-----9--x-x-------------7----7----7-------------| x2
D|-9h11--9h11--9--x-x-----9-------7h9--7h9--7----7--------|
A|----------------x-x-9h11--------------------7h9---------|
E|---------------------------0-0---------------------0-0--|


************************************

| h  Hammer-on
| x  Dead note
| p  Pull-off
| ~  Vibrato
| /  Slide up

************************************
Suggest correction
comments
print report bad tab
1 comment total.
0 reply
-matt 57 Jun 26, 2016 01:07 PM

The (3:49) Solo is not complete

guest
You may want to rate the tab now too:
select rating
Wanna post a correction for this tab? Suggest correction