Oops, an error
Loading. Please wait.

Waiting On The World To Change Bass Tab

version 1
version 1

Whole song

Interactive

31,107 views 24 this week
3 commentsread comments
1 2 3 4 5
x 5
add to favorites
launch autoscroll
font size
0
reset
guitar tuner
Autoscroll
slow
fast
+/-
esc
set tempo
stop
Help us to improve Ultimate-Guitar.com Take our survey!
×
Author
Difficulty
intermediate
[Intro]
G|------------------|
D|------------------|
A|-5-2-5--2----2-5--|
E|----3--5-23-5-----|

[Verse]
G|-------------------------------------------------------------|
D|-------------------------------------------------------------|
A|-5-2-5--2-----2-5-5-2-5---2---5-5-5-2-----5--2-----2-5-------|
E|----3--5--2h3-3-------3--5-5--2-3------2-3-5--5-5--2-3-5-----|

[Chorus]
G|----------------------------|
D|-----9---9------------------|
A|-5-7----9--7---2------2-5---|
E|------7------5-5--2-3-5-----|

[Verse]
G|-------------------------------------------------------------|
D|-------------------------------------------------------------|
A|-5-2-5--2-----2-5-5-2-5---2---5-5-5-2-----5--2-----2-5-------|
E|----3--5--2h3-3-------3--5-5--2-3------2-3-5--5-5--2-3-5-----|

[Chorus]
G|------9-----------------------|
D|-----9-9---9------------------|
A|-5-7----7-9--7---2------2-5---|
E|------------7--5-5--2-3-5-----|

[Bridge]
G|---------------------------------------------------|
D|-------------------------5--------5----------------|
A|-------5--------5---------5--------5---------------|
E|-3-3-1-3-3-6-3-3-1-3-3-6-3-3-1-3-3-3-3-1-3-3-------|

G|-----------------------------------------------------|
D|-----------------------------------------------------|
A|-------5--------5--------5-----------2-5-------------|
E|-3-3-1-3-3-6-3-3-1-3-3-6-3-3-1-3-3-6-3-3-1-3-3-5-----|

[Verse]
G|---------------------------------------------------------|
D|---------------------------------------------------------|
A|-5-2-5--2-----2-5-5-2-5---2---5-5-5-2-----5--2-----2-5---|
E|----3--5--2h3-3-------3--5-5--2-3------2-3-5--5-5--2-3-5-|

[Chorus]
G|------11-----------------------------|
D|----11--12-11--9---------------------|
A|-5-7------------9--7---2-----2-5-----|
E|-----------------7-7--5-5--2-3-5-----|

[Verse]
G|---------------------------------------------------------|
D|---------------------------------------------------------|
A|---2-----2-5---2-----2-5-----2-5-----2-5-----2-5---------|
E|-5-5--2-3-5----5-5--2-3-5----2-3-5----2-3-5----2-3-5-----|


************************************

| h  Hammer-on

************************************
Suggest correction
comments
print report bad tab
3 comments total.
0 reply
IHATECHILDREN 258 Jul 09, 2009 07:53 PM

Nice work. My only complaint is that its really confusing. But all the stuff is rite.

0 reply
gr33ndaydude 10 Sep 05, 2009 07:41 PM

the chorus is garbage

0 reply
bockius 10 Apr 01, 2013 08:36 PM

what is the h ?

guest
You may want to rate the tab now too:
select rating
Wanna post a correction for this tab? Suggest correction