Oops, an error
Loading. Please wait.

Waiting On The World To Change Bass Tab

version 1
version 1

Whole song

Interactive

30,549 views 36 this week
3 commentsread comments
1 2 3 4 5
accurate
x 5
add to favorites
launch autoscroll
font size
0
reset
guitar tuner
Autoscroll
slow
fast
+/-
esc
set tempo
stop
Help us to improve Ultimate-Guitar.com Take our survey!
×
Author
Difficulty
RTBM 689
intermediate
Intro
G|------------------|
D|------------------|
A|-5-2-5--2----2-5--|
E|----3--5-23-5-----|

Verse
G|-------------------------------------------------------|
D|-------------------------------------------------------|
A|-5-2-5--2-----2-5-5-2-5---2---5-55-2-----5--2-----2-5--|
E|----3--5--2h33-------3--55--23------23-5--55--23-5-----|

Chorus
G|--------------------------|
D|-----9---9----------------|
A|-5-7----9--7---2-----2-5--|
E|------7------55--23-5-----|



Verse
G|-------------------------------------------------------|
D|-------------------------------------------------------|
A|-5-2-5--2-----2-5-5-2-5---2---5-55-2-----5--2-----2-5--|
E|----3--5--2h33-------3--55--23------23-5--55--23-5-----|

Chorus
G|------9---------------------|
D|-----9-9---9----------------|
A|-5-7----7-9--7---2-----2-5--|
E|------------7--55--23-5-----|


Bridge
G|-----------------------------------------|
D|-------------------------5--------5------|
A|-------5--------5---------5--------5-----|
E|-33-133-6-33-133-6-33-133---33-133-------|


G|-----------------------------------------|
D|-----------------------------------------|
A|-------5--------5--------5----------2-5--|
E|-33-133-6-33-133-6-33-133-6-33-133-5-----|



Verse
G|-------------------------------------------------------|
D|-------------------------------------------------------|
A|-5-2-5--2-----2-5-5-2-5---2---5-55-2-----5--2-----2-5--|
E|----3--5--2h33-------3--55--23------23-5--55--23-5-----|

Chorus
G|------11--------------------------|
D|----11--12-11--9------------------|
A|-5-7------------9--7---2-----2-5--|
E|-----------------77--55--23-5-----|


Verse
G|--------------------------------------------------|
D|--------------------------------------------------|
A|---2-----2-5---2-----2-5-----2-5-----2-5-----2-5--|
E|-55--23-5----55--23-5----23-5----23-5----23-5-----|

Suggest correction
What's this?
You can suggest a correction to this tab. Community and Mods will review your correction and vote to approve or reject it.
comments
print report bad tab
3 comments total.
0 reply
IHATECHILDREN 1,035 wrote on July 9 2009, 07:53 pm

Nice work. My only complaint is that its really confusing. But all the stuff is rite.

0 reply
gr33ndaydude 12 wrote on September 5 2009, 07:41 pm

the chorus is garbage

0 reply
bockius 11 wrote on April 1 2013, 08:36 pm

what is the h ?

guest
You may want to rate the tab now too:
select rating
Please do not post tabs as comments. Select "correction" instead!