Oops, an error
Loading. Please wait.
We have Chord Pro version of Waiting On The World To Change.
It's the closest thing you can get to the original song and it has interactive parts. Check out the tab »
×
58,837 views 18 this week
7 commentsread comments
1 2 3 4 5
x 15
add to favorites
launch autoscroll
font size
0
reset
how to read this tab
guitar tuner
backing track
0:00
0:00
Autoscroll
slow
fast
+/-
esc
set tempo
stop
Difficulty
intermediate
-------------------------------------------------------------------------------
                WAITING ON THE WORLD TO CHANGE (Solo) - John Mayer
-------------------------------------------------------------------------------
Tabbed by: Paul Chalabian
Email: nr0@comcast.net

Tuning: Standard


Part 1:

e|--------5----5-7--5-7-10--7-10/12-17-----15p14h15p14h15p14----|
B|-7--5-7----7-------------------------15--------------------15-|
G|--------------------------------------------------------------|
D|--------------------------------------------------------------|
A|--------------------------------------------------------------|
E|--------------------------------------------------------------|


Part 2:

e|-----5-10--5-7------------------------------------------------|
B|-5-7-----------7--5-7/10--5-7---------------------------------|
G|------------------------------7-------------------------------|
D|--------------------------------------------------------------|
A|--------------------------------------------------------------|
E|--------------------------------------------------------------|


| /  slide up
| \  slide down
| h  hammer-on
| p  pull-off
| ~  vibrato
| +  harmonic
| x  Mute note
===============================================================================
Suggest correction
comments
print report bad tab
7 comments total. Showing first comments.
0 reply
davesoadffl 56 Jun 30, 2009 01:20 AM

Great tab!

0 reply
dmw3293 31 Jun 30, 2009 12:39 PM

easy and fun

0 reply
JimiHendrix92 153 Jul 02, 2009 07:24 AM

Nice tab, although i would choose:

e|--------5----5-7--5-7-10--7-10/12-12b14-10--etc---|
B|-7--5-7----7--------------------------------------|
G|--------------------------------------------------|
D|--------------------------------------------------|
A|--------------------------------------------------|
E|--------------------------------------------------|\

still 5 starts worth

guest
You may want to rate the tab now too:
select rating
Wanna post a correction for this tab? Suggest correction