Oops, an error
Loading. Please wait.

Waiting On The World To Change Tab

version 2
version 2

Whole song

Interactive

13,717 views 18 this week
1 commentread comment
1 2 3 4 5
please rate
add to favorites
launch autoscroll
font size
0
reset
how to read this tab
guitar tuner
Autoscroll
slow
fast
+/-
esc
set tempo
stop
Help us to improve Ultimate-Guitar.com Take our survey!
×
Author
Difficulty
novice
=============================================================================
Waiting on the world to change - John Mayer
Tabbed by:Jordypellemans@hotmail.com
Email: Jordypellemans@hotmail.com

Tuning: EADGBe
Key:    Dmaj
1.
e|--------------------------------------------------------------------------|
B|---/7~--5h7-7/10~---------------------------------------------------------|
G|--------------------------------------------------------------------------|
D|--------------------------------------------------------------------------|
A|--------------------------------------------------------------------------|
E|--------------------------------------------------------------------------|
2.
e|--------------------------------------------------------------------------|
B|---7h10/12~-10h12/15~-----------------------------------------------------|
G|--------------------------------------------------------------------------|
D|--------------------------------------------------------------------------|
A|--------------------------------------------------------------------------|
E|--------------------------------------------------------------------------|
3.
e|---7h10--10/12~---12b14r---12~--------------------------------------------|
B|--------------------------------------------------------------------------|
G|--------------------------------------------------------------------------|
D|--------------------------------------------------------------------------|
A|--------------------------------------------------------------------------|
E|--------------------------------------------------------------------------|
4.
e|--------------------------------------------------------------------------|
B|---19b20r19b20r19b20r19---\15~--------------------------------------------|
G|--------------------------------------------------------------------------|
D|--------------------------------------------------------------------------|
A|--------------------------------------------------------------------------|
E|--------------------------------------------------------------------------|

2 measurements rest.
5.
e|--------------------------------------------------------------------------|
B|---7--10/12----12/15--10h12\7~--------------------------------------------|
G|--------------------------------------------------------------------------|
D|--------------------------------------------------------------------------|
A|--------------------------------------------------------------------------|
E|--------------------------------------------------------------------------|
6.
e|--------------------------------------------------------------------------|
B|------5h7/10~---5h7\3~----------------------------------------------------|
G|---7----------------------------------------------------------------------|
D|--------------------------------------------------------------------------|
A|--------------------------------------------------------------------------|
E|--------------------------------------------------------------------------|

- There's probably a harmonizer used in the third measurement.

- Combining the solo with a pentatonic minor scale in D can also give a nice effect. 
does that a lot when he's performing this song live.

| /  slide up
| \  slide down
| h  hammer-on
| p  pull-off
| ~  vibrato
| +  harmonic
| x  Mute note
=============================================================================
Suggest correction
Give kudos to tab author, rate the tab!
1 2 3 4 5
comments
print report bad tab
1 comment total.
0 reply
Will883 31 wrote on July 21 2009, 08:02 pm

It's an easy solo, so you need to tab it right. He plays it all on the b string.

guest
You may want to rate the tab now too:
select rating
Wanna post a correction for this tab? Suggest correction