Oops, an error
Loading. Please wait.

Waiting On The World To Change Tab

version 3
version 3

Whole song

Interactive

216,426 views 60 this week
13 commentsread comments
1 2 3 4 5
x 33
add to favorites
launch autoscroll
font size
0
reset
how to read this tab
guitar tuner
Autoscroll
slow
fast
+/-
esc
set tempo
stop
Help us to improve Ultimate-Guitar.com Take our survey!
×
Author
Difficulty
intermediate
Tabbed by: tskandier
Email: tskandier@hotmail.com

If you can get your middle finger on your fret hand to stretch enough, 
this is a really cool one-string fingering. You're able to duplicate 
the mellow flow of JM.

[Part 1]
e|--------------------------------------------------------------|
B|-5/7~5h7/10~-7h10/12~-10h12/15~-12h15/17-17/19-15~------------|
G|-----------------------------------------16/18-14~------------|
D|--------------------------------------------------------------|
A|--------------------------------------------------------------|
E|--------------------------------------------------------------|

e|--------------------------------------------------------------|
B|-19b20b19b20b19b20b19-----------------------------------------|
G|----------------------19~-------------------------------------|
D|--------------------------------------------------------------|
A|--------------------------------------------------------------|
E|--------------------------------------------------------------|

[Part 2]
e|---5h7/10~5h7-------------------------------------------------|
B|-7------------7~--5h7/10~5h7----------------------------------|
G|----------------7------------7~-------------------------------|
D|--------------------------------------------------------------|
A|--------------------------------------------------------------|
E|--------------------------------------------------------------|


************************************

| h  Hammer-on
| /  Slide up
| ~  Vibrato
| b  Bend

************************************
Suggest correction
comments
print report bad tab
13 comments total. Showing first comments.
0 reply
fretstar 10 Jul 07, 2009 08:40 PM

thanks for posting its perfect

+3 reply
tskandier 46 Jul 08, 2009 06:29 PM

Thanks, fretstar. After watching JM perform live, I noticed he slides more in the second part than I gave him credit for. It looks more like this:

e|---5h7/10-5h7\2-----------------------------------------------|
B|-7----------------5h7/10-5h7\3--------------------------------|
G|----------------7---------------------------------------------|
D|--------------------------------------------------------------|
A|--------------------------------------------------------------|
E|--------------------------------------------------------------|

0 reply
Plethora 10 Jul 09, 2009 11:30 PM

dang, this is a nice tab. sounds exactly like it, good job.

guest
You may want to rate the tab now too:
select rating
Wanna post a correction for this tab? Suggest correction