Oops, an error
Loading. Please wait.

Waiting On The World To Change Tab

version 4
version 4

Whole song

Interactive

28,877 views 6 this week
no commentswrite comment
1 2 3 4 5
accurate
x 5
add to favorites
launch autoscroll
font size
0
reset
how to read this tab
guitar tuner
Autoscroll
slow
fast
+/-
esc
set tempo
stop
Help us to improve Ultimate-Guitar.com Take our survey!
×
Author
Difficulty
novice
Waiting On The World To Change
tabbed by Pierre
Standard Tuning

"One, two, three, four.."
(Intro)
e--------------|
b--------------|
g---7----7-----|
d---7----7-----|
a---7h9--7h9---|
e--------------|


Intro / Verse

e----------------------------------- -------------------------|
b---10---7--(7h10)---3---7---------- ---5--7--(7)-----3---7---|
g---11---7--(7)------4---7--(7)----- ---6--7--(7h9)---4---7---|
d---12---9--(9)------5---7--(7)----- ---7--9--(9)-----5---7---|
a----x---x-----------x---5--(7h9)--- ---x--x----------x---5---|
e---10---7-----------3-------------- ---5--7----------3-------|


Chorus

e------------------- -------------------|
b---7---7---3---7--- ---5---7---3---7---|
g---7---7---4---7--- ---6---7---4---7---|
d---7---9---5---7--- ---7---9---5---7---|
a---5---x---x---5--- ---x---x---x---5---|
e-------7---3------- ---5---7---3-------|

Variation:

e------------------------ ----0-5---------------|
b-----7-10---7---3---7--- ----2-5---7---3---7---|
g-----7-11---7---4---7--- ----2-6---7---4---7---|
d-----7-12---9---5---7--- ----2-7---9---5---7---|
a---5--------x---x---5--- --0-------x---x---5---|
e------------7---3------- ----------7---3-------|


"It's hard to beat the system.."
"It's not that we don't care.."
"One day our generation.."

e-------7---7---7--- -------------------|
b---7---8---7---8--- ---5---7---3---7---|
g---7---7---7---7--- ---6---7---4---7---|
d---7---9---7---9--- ---7---9---5---7---|
a---5---7---9---7--- ---x---x---x---5---|
e-----------7------- ---5---7---3-------|


Interlude

e--------------- --------------------------------|
b--------------- ---3-3--5-5---------------------|
g---3--(3)--3--- ---3-3--5-5---------------------|
d---3--(5)--3--- ---3-3--5-5---(back to verse)---|
a---7--(7)--7--- ---7-7--9-9---------------------|
e---3--(3)--3--- ---3-3--5-5---------------------|


Solo

e---------------------------------------------------------------------------------------------|
b---/7~~-5h7/10~~~~-7h10/12~~~~--10h12/15~~~~---12h15/17--17b19-15~~--18b20~b20~b20~~~~-15~~--|
g---------------------------------------------------------18b19-16~~--------------------------|
d---------------------------------------------------------------------------------------------|
a---------------------------------------------------------------------------------------------|
e---------------------------------------------------------------------------------------------|

e---------------------------------------------------------------|
b------10/12-15~~~~--10h12--------------5/7-10~~~~-5h7----------|
g---11---------------------11~~~~-----7-----------------7~~~~---|
d---------------------------------------------------------------|
a---------------------------------------------------------------|
e---------------------------------------------------------------|


Ending

e------------------- ----------------------|
b---5---7---3---7--- ---3---7--------------|
g---6---7---4---7--- ---4---7--------------|
d---7---9---5---7--- ---5---7---(repeat)---|
a---x---x---x---5--- ---x---5--------------|
e---5---7---3------- ---3------------------|
Suggest correction
comments
print report bad tab
guest
You may want to rate the tab now too:
select rating
Please do not post tabs as comments. Select "correction" instead!