Oops, an error
Loading. Please wait.

Waiting On The World To Change Bass Tab

version 2
version 2

Whole song

Interactive

17,391 views 15 this week
2 commentsread comments
1 2 3 4 5
accurate
x 11
add to favorites
launch autoscroll
font size
0
reset
guitar tuner
Autoscroll
slow
fast
+/-
esc
set tempo
stop
Help us to improve Ultimate-Guitar.com Take our survey!
×
Difficulty
novice
Waiting On The World To Change
*John Mayer*

Greet song for a "Just Started" bass player. It was my first song. 
Hope you like the EASY tab I made.


In-tro:
1x
Half Notes

G |-------12----------------|
D |-12-------12----------12-|
A |----14-------12-14-10----|
E |-------------------------|


Verse:
2x
Half Notes

G |------0-------------|
D |-0-------0--------0-|
A |----2------0--2-----|
E |----------------3---|


Chorus:
1x
Eighth Notes

G |---------------0-0-0-0----------------------------------------|
D |-0-0-0-0---------------0-0-0-0------------------------0-0-0-0-|
A |---------2-2-2-2---------------0-0-0-0-2-2-2-2----------------|
E |-----------------------------------------------3-3-3-3--------|

1x
Half Notes

G |--------------------------|
D |-12-14-----------------12-|
A |-------14-12--12-14-10----|
E |--------------------------|


Verse:
2x
Half Notes

G |------0-------------|
D |-0-------0--------0-|
A |----2------0--2-----|
E |----------------3---|


Chorus:
1x
Eighth Notes

G |---------------0-0-0-0----------------------------------------|
D |-0-0-0-0---------------0-0-0-0------------------------0-0-0-0-|
A |---------2-2-2-2---------------0-0-0-0-2-2-2-2----------------|
E |-----------------------------------------------3-3-3-3--------|

1x
Half Notes

G |--------------------------|
D |-12-14-----------------12-|
A |-------14-12--12-14-10----|
E |--------------------------|


Guitar Solo:
12x
Eighth Notes 

G |-----------------|
D |-----------------|
A |-----------------|
E |-3-3-3-3-3-3-3-3-|


1x
Half Notes

G |-------12----------------|
D |-12-------12----------12-|
A |----14-------12-14-10----|
E |-------------------------|


Final Chorus:
1x
Eighth Notes

G |---------------0-0-0-0----------------------------------------|
D |-0-0-0-0---------------0-0-0-0------------------------0-0-0-0-|
A |---------2-2-2-2---------------0-0-0-0-2-2-2-2----------------|
E |-----------------------------------------------3-3-3-3--------|

1x
Half Notes

G |----------------------|
D |-12-14--------------0-|
A |-------14-12--0-2-----|
E |------------------3---|

2x
Eighth Notes

G |---------------------------------|
D |-------------------------0-0-0-0-|
A |-0-0-0-0-2-2-2-2-----------------|
E |-----------------3-3-3-3---------|

1x
Eighth Note

G |------------------------------------------------|
D |---------0---------------0-------------------12-|
A |---------------------------------14-14-14-14----|
E |-3-3-3-3---------3-3-3-3------------------------|
Suggest correction new What's this?
You can suggest a correction to this tab. Community and Mods will review your correction and vote to approve or reject it.
comments
print report bad tab
2 comments total.
0 reply
averagejoel 111 wrote on March 7 2010, 08:56 am

This sounds nothing short of perfect to me. If you add a little slap after every half note you create a very John Mayer-ish sound which sounds awsome! Can't wait to play this with some friends. Five stars!

0 reply
13hurricane 78 wrote on June 12 2011, 09:29 pm

Great tab, just one thing. Sounds like after the solo the bass does the riff on the 10-14 range twice, once when the guitar does it and repeats when the bells/piano comes in.

guest
You may want to rate the tab now too:
select rating
Please do not post tabs as comments. Select "correction" instead!