Oops, an error
Loading. Please wait.

Waiting On The World To Change Tab

version 2
version 2

Whole song

Interactive

77,012 views 21 this week
3 commentsread comments
1 2 3 4 5
x 3
add to favorites
launch autoscroll
font size
0
reset
how to read this tab
guitar tuner
Autoscroll
slow
fast
+/-
esc
set tempo
stop
Help us to improve Ultimate-Guitar.com Take our survey!
×
Author
Difficulty
novice
Most of this songs the same. What's below is actually the intro, verse and chorus.

   D  Bm7  G   D   A  Bm7  G   D
e|-7---7---3---7---5---7---3---7-|
B|-7---7---3---7---5---7---3---7-|
G|-7---7---4---7---6---7---4---7-|
D|-7---7---5---7---7---7---5---7-|
A|-5---x---5---5---7---x---5---5-|
E|-----7---3-------5---7---3-----|

That is the order that John play's it in, but he doesn't do just one stroke on each.
to the song, change and strum the chord when he does. It's also in the key of D.
-------------------------------------------------------------------------------
                WAITING ON THE WORLD TO CHANGE (Solo)
-------------------------------------------------------------------------------
This is also a pretty easy solo.

e|------------------------------------12--14P-10--14(pull-up-and-down-3-times)|
B|-7------10-------12-------15--12/15-----------------------------------------|
G|---9/11----11/14----14/16---------------------------------------------------|
D|----------------------------------------------------------------------------|
A|----------------------------------------------------------------------------|
E|----------------------------------------------------------------------------|

e|-10--7---7---3--7-----------------------------------------------------------|
B|-----7---7---3--7-----------15--10/12-------------10---7H10-----------------|
G|-----7---7---4--7---9/11/14-----------11---7/9/11-----------7---------------|
D|-----7---7---5--7-----------------------------------------------------------|
A|-----5---x---5--5-----------------------------------------------------------|
E|---------7---3--------------------------------------------------------------|
Suggest correction
Give kudos to tab author, rate the tab!
1 2 3 4 5
comments
print report bad tab
3 comments total.
+1 reply
jeff541 90 Jul 19, 2009 06:05 PM

goood tab if you have a good ear and can figure stuff out

+1 reply
guildplayer 68 Jul 23, 2009 03:42 PM

haha thanks. That's how most of my tabs are.

0 reply
d0115042 10 Jul 02, 2010 03:37 PM

u know thats a D6 not a Dmaj chord rt? 7 on E is B which is the 6th of the D scale.

guest
You may want to rate the tab now too:
select rating
Wanna post a correction for this tab? Suggest correction