Oops, an error
Loading. Please wait.

Walk On The Ocean Tab

20,390 views 1 this week
no commentswrite comment
1 2 3 4 5
excellent!
x 4
add to favorites
launch autoscroll
font size
0
reset
how to read this tab
guitar tuner
Autoscroll
slow
fast
+/-
esc
set tempo
stop
Help us to improve Ultimate-Guitar.com Take our survey!
×
Contributor
Difficulty
Capo
intermediate
4th fret
Hey, this is John Mayer's "Walk on the Ocean" with Toad the Wet Sprocket. I admit I 
tab this myself, but it's about what I was gonna do and then I found this, so here it is in 
entiriety, all the credit going to them. Thanks

Walk on the ocean (with Toad the Wet Sprocket)
transcribed by Catherine Gagné

Capo 4th fret

Part 1: Verse A

e-----3-----3----3----------------------3------3-----3-----------------------|
b-----3-----3----3---2-(3-2)------------3------3-----3---3---2--(2h3--3p2)---|
g-----0-----0----0---2-(2-2)------------0------0-----0---2---2--(2----2--)---|
d--------------------2---------(x2)----------------------0---2--(2h4--4p2)---|
a---2---2h3----------0----------------2----2h3-----------x---0---------------|
e--------------3-----------------------------------3-----2-------------------|

Part 2: Verse B

e-----3-----3----3------------- ----------3-------------|
b-----3-----3----3---2-(3-2)--- --0---3---3---2-(3-2)---|
g-----0-----0----0---2-(2-2)--- --0---2---0---2-(2-2)---|
d--------------------2--------- --2---0---0---2---------|
a---2---2h3----------0--------- --2---x---x---0---------|
e--------------3--------------- --0---2---3-------------|

e-----3-----3----3---------------------|
b-----3-----3----3---3---2--(2h3-3h5)--|
g-----0-----0----0---2---2--(2---2)----|
d--------------------0---2--(2---2)----|
a---2---2h3----------x---0-------------|
e--------------3-----2-----------------|


Part 3: Chorus

e---0---3---2-------|
b---0---3---3---2---|
g---0---0---2---2---|
d---2---0---0---2---|
a---2---2-------0---|
e---0---3-----------|

Including the variations:

e---0-----3---0h2--------|
b---0-----3---3----2h3---|
g---0-----0---2----2-----|
d---2-----0---0----2-----|
a---2-----2--------0-----|
e---0-(2)-3--------------|

(1) We spotted the ocean
    At the head of the trail
    Where are we going
    That's so far away?

(2) Somebody told me
    That this is the place
    Where everything's better
    And everythings safe

(3) Walk on the ocean
    Step on the stones
    Flesh becomes water
    Wood becomes bone

(1) Half an hour later
    We packed up our things
    Said we'd send letters
    And all those little things

(2) They knew we were lying
    But they smiled just the same
    Seemed that already
    Forgotten we came

(3) Walk on the ocean
    Step on the stones
    Flesh becomes water
    Wood becomes bone

    Walk on the ocean
    Step on the stones
    Flesh becomes water
    Wood becomes bone

(2) Back at the homestead
    Where the air makes you choke
    People don't know you
    And trust is a joke

(2) Don't even have pictures
    Just memories to hold
    That grow sweeter each season
    As we slowly grow old
comments
print report bad tab
I want to post or [tab]
guest
You may want to rate the tab now too:
select rating
Please do not post tabs as comments. Select "correction" instead!