Oops, an error
Loading. Please wait.

Who You Love tab

15,172 views 9 this week
5 commentsread comments
1 2 3 4 5
x 15
add to favorites
×
Save as Personal and add changes to this tab that will be seen only by you. Learn more ›
×
You can save this tab as Personal to edit and correct it or add notes. All changes will be seen only by you. Learn more »
launch autoscroll
font size
0
reset
how to read this tab
guitar tuner
edit
Autoscroll
slow
fast
+/-
esc
set tempo
stop
Author
Difficulty
-------------------------------------------------------------------------------
                             WHO YOU LOVE - John Mayer
-------------------------------------------------------------------------------
Tabbed by: James F
Tuning: Standard

INTRO RIFF

e|--7--7/9/7----9/7----------------------------------------------------------|
B|-----------------7--7/10---------------------------------------------------|
G|---------------------------------------------------------------------------|
D|---------------------------------------------------------------------------|
A|---------------------------------------------------------------------------|
E|---------------------------------------------------------------------------|

CHORDS:
Verses & Chorus: E, A, D
Bridge: F#m, Bm 

            
            
Suggest correction
Creating personal tab
Creating personal tab
You can edit any tab online and save it as your Personal.

You can edit, replace or remove any tab part or add personal notes – all changes will be seen only by you.

Personal tabs can be accessed anytime from any device, even offline.
Learn more »
comments
print report bad tab
5 comments total. Showing first comments.
-2 reply
Lwhite3698 10 Sep 12, 2013 04:42 PM

7/9/7 needs to be changed to this:

e|--7--9/10/9----9/7-----------------------------------------------------|
B|-----------------7--7/10-----------------------------------------------|
G|-----------------------------------------------------------------------|
D|-----------------------------------------------------------------------|
A|-----------------------------------------------------------------------|
E|-----------------------------------------------------------------------|

+2 reply
MannyOaks 10 Dec 06, 2013 12:23 PM

e|--7--9/10/9----9/7-----------------------------------------------------|
B|-------------------10/7-7/10-------------------------------------------|
G|-----------------------------------------------------------------------|
D|-----------------------------------------------------------------------|
A|-----------------------------------------------------------------------|
E|-----------------------------------------------------------------------|

I think it sounds cool like this c:

0 reply
rrebergen 10 Dec 18, 2013 03:31 AM

Why not with a little bend?:)

e|--7--9br--9--9p7-------------------------------------------------------|
B|------------------10p7/10-10-------------------------------------------|
G|-----------------------------------------------------------------------|
D|-----------------------------------------------------------------------|
A|-----------------------------------------------------------------------|
E|-----------------------------------------------------------------------|

guest
You may want to rate the tab now too:
select rating
Wanna post a correction for this tab? Suggest correction