Oops, an error
Loading. Please wait.

Why Georgia Bass Tab

version 1
version 1

Whole song

6,262 views 3 this week
1 commentread comment
1 2 3 4 5
2 more votes to show rating
add to favorites
launch autoscroll
font size
0
reset
guitar tuner
Autoscroll
slow
fast
+/-
esc
set tempo
stop
Help us to improve Ultimate-Guitar.com Take our survey!
×
Author
Difficulty
intermediate
Intro

  G      D         G      D         G      D         G      D
G|----------------|----------------|----------------|----------------|
D|----------------|----------------|----------------|----------------|
A|----------------|----------------|----------------|----------------|
E|----------------|----------------|----------------|----------------|


Verse (1)
 
  G      D         G      D         G      D         G      D
G|----------------|----------------|----------------|----------------|
D|----------------|----------------|----------------|----------------|
A|----------------|----------------|----------------|----------------|
E|----------------|----------------|----------------|----------------|

  C9               C9               G      D         G      D
G|----------------|----------------|----------------|----------------|
D|----------------|----------------|----------------|----------------|
A|----------------|----------------|----------------|----------------|
E|----------------|----------------|----------------|----------------|

  G      D         G      D         G      D         G      D
G|----------------|----------------|----------------|----------------|
D|----------------|----------------|----------------|----------------|
A|----------------|----------------|----------------|----------------|
E|----------------|----------------|----------------|----------------|

  C9               C9               G      D         G      D
G|----------------|----------------|----------------|----------------|
D|----------------|----------------|----------------|----------------|
A|----------------|----------------|----------------|----------------|
E|----------------|----------------|----------------|----------------|


Refrain

  Em               D/F#             G                C9    
G|----------------|----------------|----------------|----------------|
D|----------------|----------------|----------------|----------------|
A|9---------------|----------------|----------------|3---------------|
E|----------------|2---------------|3---------------|----------------|

  Em               D/F#             G      A11
G|----------------|----------------|----------------|
D|----------------|----------------|----------------|
A|9---------------|----------------|----------------|
E|----------------|2---------------|3---3---5---5---|


Chorus
              
  D9     A11       G                D9    A11        Em     
G|----------------|----------------|----------------|----------------|
D|----------------|----------------|----------------|----------------|
A|5---------------|----------------|5---------------|----------------|
E|--------5-------|3---------------|--------5-------|0---------------|

  D9     A11       G                F9               F9    C
G|----------------|----------------|----------------|----------------|
D|----------------|----------------|----------------|----------------|
A|5---------------|----------------|----------------|--------3---3---|
E|--------5-------|3---------------|1---------------|1---1-----------|


[Intro]

  G      D         G      D         G      D         G      D
G|----------------|----------------|----------------|----------------|
D|----------------|----------------|----------------|----------------|
A|--------5-5-5-5-|--------5-5-5-5-|--------5-5-5-5-|--------5-5-5-5-|
E|3-3-3-3---------|3-3-3-3---------|3-3-3-3---------|3-3-3-3---------|


Verse (2)

  G      D         G      D         G      D         G      D
G|----------------|----------------|----------------|----------------|
D|----------------|----------------|----------------|----------------|
A|--------5---5---|--------5---5---|--------5---5---|--------5---5---|
E|3---3-----------|3---3-----------|3---3-----------|3---3-----------|

  C9               C9               G      D         G      D
G|----------------|----------------|----------------|----------------|
D|----------------|----------------|----------------|----------------|
A|3---3---3---3---|3---3---3---3---|--------5---5---|--------5---5---|
E|----------------|----------------|3---3-----------|3---3-----------|

  C9               C9               G      D         G      D
G|----------------|----------------|----------------|----------------|
D|----------------|----------------|----------------|----------------|
A|3---3---3---3---|3---3---3---3---|--------5---5---|--------5---5---|
E|----------------|----------------|3---3-----------|3---3-----------|


Refrain

  Em               D/F#             G                C9    
G|----------------|----------------|----------------|----------------|
D|----------------|----------------|----------------|----------------|
A|9---------------|----------------|----------------|3---------------|
E|----------------|2---------------|3---------------|----------------|

  Em               D/F#             G      A11
G|----------------|----------------|----------------|
D|----------------|----------------|----------------|
A|9---------------|----------------|----------------|
E|----------------|2---------------|3---3---5---5---|


Chorus
              
  D9     A11       G                D9    A11        Em     
G|----------------|----------------|----------------|----------------|
D|----------------|----------------|----------------|----------------|
A|5---5-----------|----------------|5---5-----------|----------------|
E|--------5---5---|3---3---3---3---|--------5---5---|0---------------|

  D9     A11       G                F9               F9    C
G|----------------|----------------|----------------|----------------|
D|----------------|----------------|----------------|----------------|
A|5---5-----------|----------------|----------------|--------3---3---|
E|--------5---5---|3---3---3---3---|1---------------|1---1-----------|

  G                G
G|----------------|----------------|
D|----------------|----------------|
A|----------------|----------------|
E|3-3-3-3-3-3-3-3-|3-3-3-3-3-3-3-3-|


Bridge

  F10    Bb10      C10    Bb10      F10    Bb10      C10    Bb10
G|----------------|----------------|----------------|----------------|
D|----------------|----------------|----------------|----------------|
A|--------1-----12|3-----321-----1-|--------1-----12|3-----321-----1-|
E|1-----13--------|----------------|1-----13--------|----------------|

  G      C9        D      C9        G      C9        D      C9
G|----------------|----------------|----------------|----------------|
D|----------------|----------------|----------------|----------------|
A|--------3---3---|5---5---3---3---|--------3---3---|5---5---3---3---|
E|3---3-----------|----------------|3---3-----------|----------------|

  Em9    D7        Cm9    F9
G|----------------|----------------|
D|----------------|----------------|
A|9-------7-------|3---------------|
E|----------------|--------1-------|
Suggest correction
Give kudos to tab author, rate the tab!
1 2 3 4 5
comments
print report bad tab
1 comment total.
0 reply
meeshesmerg 62 Sep 01, 2014 10:42 AM

Clearly wrong.

guest
You may want to rate the tab now too:
select rating
Wanna post a correction for this tab? Suggest correction