Oops, an error
Loading. Please wait.

Why Georgia Tab

version 6
version 6
10,191 views 6 this week
1 commentread comment
1 2 3 4 5
excellent!
x 4
add to favorites
launch autoscroll
font size
0
reset
how to read this tab
guitar tuner
Tab Pro tools
  • play this tab
  • loop segment
  • change instrument
  • show fretboard
  • metronome
×
Best way to learn
"Why Georgia"
Autoscroll
slow
fast
+/-
esc
set tempo
stop
Contributor
Difficulty
intermediate
----------------------------------------------------------------------------                         
Why Georgia - John Mayer (Live In La)
----------------------------------------------------------------------------
This is the second guitar played by Robbie Mcintosh 

Tabbed by:NYK2013 

E-mail:eugeneyeoh101@gmail.com

Tuning:Standerd 

Sorry but i could not figure the last bit of the guitar and this is my first tab 
so sorry if i made any errors 

The second guitar come in when John Mayer starts singing cause i wonder.......

(1)
e|------------------------------------|
B|---12-------10-12-------------------|
G|------12----------------------------|
D|---------12-------------------------| x7 
A|10----------------------------------|
E|------------------------------------|

(2)
e|---3-------3------------------------|
B|-----3-------------3----------------|
G|-------0---------2---0--------------|
D|-0---------0---0--------------------| x8
A|------------------------------------|
E|------------------------------------|

(3)
e|------------------------------------|
B|---3-----0h1-1----------------------|
G|-----0---------0--------------------| x2
D|-------2---------2------------------|
A|-3----------------------------------|
E|------------------------------------|

(4)
e|---3-------3------------------------|
B|-----3-------------3----------------|
G|-------0---------2---0--------------|
D|-0---------0---0--------------------| x2
A|------------------------------------|
E|------------------------------------|

(5)
e|------------------------------------|
B|---3-----0h1-1----------------------|
G|-----0---------0--------------------| x2
D|-------2---------2------------------|
A|-3----------------------------------|
E|------------------------------------|

(6)
e|---3-------3------------------------|
B|-----3-------------3----------------|
G|-------0---------2---0--------------|
D|-0---------0---0--------------------| x2
A|------------------------------------|
E|------------------------------------|

(7)
e|------------------------------------|
B|---12-------10-12-------------------|
G|------12----------------------------|
D|---------12-------------------------| x7 
A|10----------------------------------|
E|------------------------------------|

(8)
e|------------------------------------|
B|---3-----0h1-1----------------------|
G|-----0---------0--------------------| x2
D|-------2---------2------------------|
A|-3----------------------------------|
E|------------------------------------|

(9)
e|---3-------3------------------------|
B|-----3-------------3----------------|
G|-------0---------2---0--------------|
D|-0---------0---0--------------------| x2
A|------------------------------------|
E|------------------------------------|


I am driving up 85 in the kind of morning

That lasts all afternoon, I'm just stuck inside the gloom

Four more exits to my apartment

But I am tempted to keep the car in drive and leave it all behind

(1)
'Cause I wonder sometimes about the outcome of a still verdict less life

Am I living it right, am I living it right?

Am I living it right
           
                      (2)
Why, why Georgia, why?

I rent a room and I fill the spaces with wood in places
                         
                         (3)                    (4)
To make it feel like home but all I feel's alone

                            (5)                     (6)
It might be a quarter life crisis, just a stirrin' in my soul

(7)
Either way I wonder sometimes about the outcome of a still verdict less life

Am I living it right, am I living it right?

Am I living it right?

Why, why Georgia, why?

So what, so I've got a smile on

But it's hiding the quiet superstitions in my head

Don't believe me, don't believe me when I say I've got it down

                                                                     (8)
Everybody's just a stranger but that's the danger in going my own way

                                    (9) 
I guess it's a price I have to pay, still everything happens for a reason

Is no reason not to ask myself if I'm living it right

Am I living it right, am I living it right?

Why tell me, why

Why, why Georgia, why?



************************************

| /   slide up
| \   slide down
| h   hammer-on
| p   pull-off
| ~   vibrato
| +   harmonic
| x   Mute note
| b   Bend
| p b  Pre-bend
| br  Bend release
| pbr Pre-bend release
| brb Bend release bend

************************************
comments
print report bad tab
1 comment total.
0 reply
NYK2013 wrote on January 7 2013, 06:46 am

The number that has (1),(2),(3).... etc means where you have to play shown in the lyric

I want to post or [tab]
guest
You may want to rate the tab now too:
select rating
Please do not post tabs as comments. Select "correction" instead!