Oops, an error
Loading. Please wait.
We have an official Why Georgia tab made by UG professional guitarists. Check out the tab »
×

Why Georgia tab

version 7
version 7

Whole song

475 views 1 this week
no commentswrite comment
1 2 3 4 5
2 more votes to show rating
add to favorites
×
Save as Personal and add changes to this tab that will be seen only by you. Learn more ›
×
You can save this tab as Personal to edit and correct it or add notes. All changes will be seen only by you. Learn more »
launch autoscroll
font size
0
reset
how to read this tab
guitar tuner
backing track
0:00
0:00
edit
Autoscroll
slow
fast
+/-
esc
set tempo
stop
Author
Difficulty
About this tab version
This goes in depth into all aspects of the song. Unlike the other tablature that is hard for me to understand. This is more for myself to help comprehend better what is going on. I figured it might help others out too. Was this info helpful? Yes No
(Intro x4)
e[-----------------------------]
b[----3----3-------------------]
g[----0h2--0--------0-----0----]
d[----------------4------4-----]
a[-----------0----5-----5------]
e[--3----x------------x--------]

1.    I    am    driving up 
2.    4  more    exits  to 
e[-----------------------------]
b[----3----3-------------------]
g[----0h2--0--------0-----0----]
d[----------------4------4-----]
a[-----------0----5-----5------]
e[--3----x------------x--------]
1.    Eighty- Five  in  the
2.    my       apartment but
e[-----------------------------]
b[----3----3-------------------]
g[----0h2--0--------0-----0----]
d[----------------4------4-----]
a[-----------0----5-----5------]
e[--3----x------------x--------]
                                
1.    Kind of     morning that
2.    I am      tempted to 
e[-----------------------------]
b[----3----3-------------------]
g[----0h2--0--------0-----0----]
d[----------------4------4-----]
a[-----------0----5-----5------]
e[--3----x------------x--------]
                                
1. lasts all afternoon
2.   keep the    car in drive
e[-----------------------------]
b[----3----3--------0-----0----]
g[----0h2--0--------0-----0----]
d[----------------4------------]
a[-----------0----5-----0------]
e[--3----x------------x--------]
                                
1.                                                  Just stuck inside the gloom
2.                                                  And leave it all behind
e[--------------------------------------------------------------------------]
b[-----3----3--------3------3------3----3---3-------3------3-----0----------]
g[-----2----2p0------2p0----2p0----2h4--2---2p0-----2p0----2p0---2h4--------]
d[--------------2p0-----------------------------2p0-------------------------]
a[--3----3---------------3------3---------3------------3-------3------------]
e[--------------------------------------------------------------------------]

(Intro x2)
e[-----------------------------]
b[----3----3-------------------]
g[----0h2--0--------0-----0----]
d[----------------4------4-----]
a[-----------0----5-----5------]
e[--3----x------------x--------]
 

Pre-Chorus
      Em7/B   Dadd4/F#          G
Cause I       wonder sometimes
          Cadd2
About the outcome
     Em7/B   Dadd4/F#          G  A
Of a still verdictless life
     D5        A  G
Am I living it right?
     D5        A Em7/B
Am I living it right?
     D5        A  G
Am I living it right?
F   Fsus2    Cadd2
Why, why, Georgia, why?

e[-----------------------------]
b[----3----3-------------------]
g[----2----0----------0--------]x4
d[----------------4------4h5---]
a[----------------5-----5------]
e[--3----x----------0----------]
     
1.    I rent a    room and I 
e[-----------------------------]
b[----3----3-------------------]
g[----0h2--0--------0-----0----]
d[----------------4------4-----]
a[-----------0----5-----5------]
e[--3----x------------x--------]
1.    fill the spaces with
e[-----------------------------]
b[----3----3-------------------]
g[----0h2--0--------0-----0----]
d[----------------4------4-----]
a[-----------0----5-----5------]
e[--3----x------------x--------]
1.   Wood in      places to
2. 
e[-----------------------------]
b[----3----3-------------------]
g[----0h2--0--------0-----0----]
d[----------------4------4-----]
a[-----------0----5-----5------]
e[--3----x------------x--------]
1.   make it    feel like home
2.  It might be a quarter life crisis   
e[-----------------------------]
b[----3----3--------0-----3----]
g[----0h2--0--------0-----0----]
d[----------------4------------]
a[-----------0----5------------]
e[--3----x------------x--------]

1.                                                  But all I feel's alone
2.                                                  Or just the stirring in my soul
e[--------------------------------------------------------------------------]
b[-----3----3--------3------3------3----3---3-------3------3-----0----------]
g[-----2----2p0------2p0----2p0----2h4--2---2p0-----2p0----2p0---2h4--------]
d[--------------2p0-----------------------------2p0-------------------------]
a[--3----3---------------3------3---------3------------3-------3------------]
e[--------------------------------------------------------------------------]

(Intro x2)
e[-----------------------------]
b[----3----3-------------------]
g[----0h2--0--------0-----0----]
d[----------------4------4-----]
a[-----------0----5-----5------]
e[--3----x------------x--------]

Pre-Chorus
           Em7/B   Dadd4/F#          G
Either Way I       wonder sometimes
          Cadd2
About the outcome
     Em7/B   Dadd4/F#          G  A
Of a still   verdictless life
     D5        A  G
Am I living it right?
     D5        A Em7/B
Am I living it right?
     D5        A  G
Am I living it right?
F   Fsus2    Cadd2      G  Gmaj7 G
Why, why, Georgia, why?

Bridge

So what, so I've got a smile on
  But it's hiding the quiet superstitions in my head
e[--------------------]
b[--------------------]
g[----------5---7---5-]
d[------5---3---5---3-]x2
a[------3---1---3---1-]
e[------1-------------]

Don't believe me, don't believe me,
e[-3---3---0---3------]
b[-3---3---3---3------]
g[-0---0---0---0------]
d[-0---2---4---x-----]
a[-2---3---5---3------]
e[-3------------------]

When I say I've got it down            
e[---------0---------------]
b[-----8---3----1---3------]
g[-----7---0----0---0------]
d[-----9---4----3---2------]
a[-----7---5----3---3------]
e[-------------------------]

(Intro x4)
e[-----------------------------]
b[----3----3-------------------]
g[----0h2--0--------0-----0----]
d[----------------4------4-----]
a[-----------0----5-----5------]
e[--3----x------------x--------]
      Everybody        is 
e[-----------------------------]
b[----3----3-------------------]
g[----0h2--0--------0-----0----]
d[----------------4------4-----]
a[-----------0----5-----5------]
e[--3----x------------x--------]
      just a stranger but
e[-----------------------------]
b[----3----3-------------------]
g[----0h2--0--------0-----0----]
d[----------------4------4-----]
a[-----------0----5-----5------]
e[--3----x------------x--------]
                                
     That's the danger in 
e[-----------------------------]
b[----3----3-------------------]
g[----0h2--0--------0-----0----]
d[----------------4------4-----]
a[-----------0----5-----5------]
e[--3----x------------x--------]
                                
     going my      own    way
e[-----------------------------]
b[----3----3--------0-----0----]
g[----0h2--0--------0-----0----]
d[----------------4------------]
a[-----------0----5-----0------]
e[--3----x------------x--------]
                                
1.                                                  I guess it's the price I have to pay
2.                                                  And leave it all behind
e[--------------------------------------------------------------------------]
b[-----3----3--------3------3------3----3---3-------3------3-----0----------]
g[-----2----2p0------2p0----2p0----2h4--2---2p0-----2p0----2p0---2h4--------]
d[--------------2p0-----------------------------2p0-------------------------]
a[--3----3---------------3------3---------3------------3-------3------------]
e[--------------------------------------------------------------------------]

Pre-Chorus
       Em7/B      Dadd4/F#      G
Still "everything happens for a reason"
        A
It's no reason not to ask myself

        D5        A  G
If I am living it right?
     D5        A Em7/B
Am I living it right?
     D5        A  G
Am I living it right?
F   Fadd2                   Cadd2    G
Why, tell me why, why, why, Georgia, why?
Suggest correction
Creating personal tab
Creating personal tab
You can edit any tab online and save it as your Personal.

You can edit, replace or remove any tab part or add personal notes – all changes will be seen only by you.

Personal tabs can be accessed anytime from any device, even offline.
Learn more »
Give kudos to tab author, rate the tab!
1 2 3 4 5
comments
print report bad tab
guest
You may want to rate the tab now too:
select rating
Wanna post a correction for this tab? Suggest correction