Oops, an error
Loading. Please wait.
We have an official Why Georgia tab made by UG professional guitarists. Check out the tab »
×

Why Georgia Acoustic tab

version 8
version 8

Whole song

49 views 6 this week
no commentswrite comment
1 2 3 4 5
3 more votes to show rating
add to favorites
×
Save as Personal and add changes to this tab that will be seen only by you. Learn more ›
×
You can save this tab as Personal to edit and correct it or add notes. All changes will be seen only by you. Learn more »
launch autoscroll
font size
0
reset
how to read this tab
guitar tuner
backing track
0:00
0:00
edit
Autoscroll
slow
fast
+/-
esc
set tempo
stop
About this tab version
This version is broken down into very very simple parts. If you can master these parts and piece them together from the original song, you will have mastered the song. Was this info helpful? Yes No
FOR BEGINNERS

PLEASE NOTE: NO, THE RHYTHM IS NOT THERE IN CERTAIN PARTS... ONLY THE CHORDS LAID OUT.
LISTEN TO THE SONG AND PLAY IT ACCORDINGLY. START SLOW.

THIS IS NOT EXACTLY HOW JOHN MAYER PLAYS IT - THIS IS MY BEST INTERPRETATION OF THE SONG
(MORE FOR BEGINNERS).

I'VE BROKEN DOWN THIS SONG INTO VERY VERY SIMPLE PARTS. LEARN THEM ONE BY ONE AND YOU
WILL MASTER THIS SONG. IT IS A VERY VERY SIMPLE SONG WHEN BROKEN DOWN. LEARN THE PARTS,
LISTEN TO THE SONG, AND PIECE THEM TOGETHER  ACCORDINGLY. IT IS A VERY SIMPLE CONCEPT.
PLEASE ENJOY.

THIS DID NOT TAKE ME LONG TO DO AT ALL. COMPOSED FROM VARIOUS TABS, CHORDS, AND YOUTUBE
VIDEOS. THANK YOU. HOPE IT IS SIMPLE

[Verse 1]
E|----------|---------------|------------|
B|-----3----|--3------------|------------|
G|-----0h2--|--0--------0---|---------0--|
D|----------|--------4------|------4-----|
A|----------|--------5------|---5--------|
E|--3-------|---------------|------------|

[Verse 2]
E|--------------------------------------|
B|-----3--3------------------3-----3----|
G|-----4--4p2--------4p2-----4-----4p2--|
D|-----2--2-------2----------2-----2----|
A|--3----------3----------3-----3-------|
E|--------------------------------------|

[Pre-Chorus]
E|--0-----0-----0-----0-----0-----0-----0--0--|
B|--3-----3-----3-----3-----3-----3-----3--2--|
G|--0-----2-----0-----0-----0-----2-----0--2--|
D|--2-----0-----0-----2-----2-----0-----0--2--|
A|--2-----0-----2-----3-----2-----0-----2--0--|
E|--0-----2-----3-----0-----0-----2-----3-----|

"I wonder sometimes... about the outcome..."

[Chorus]
E|--0--0--0-----0--0--0-----0--0--0-----3-------3----0--|
B|--3--3--3-----3--3--3-----3--3--3-----0h1-----0h1--1--|
G|--2--2--0-----2--2--0-----2--2--0-----0-------0----0--|
D|--0--2--0-----0--2--2-----0--2--0-----3-------3----2--|
A|-----0--2--------0--2--------0--2-----0-------0----3--|
E|--------3-----------0-----------3-----1-------1----3--|

"Am I living it right......."

[Alternate Chorus End]
E|--3-------3----0--3-----2--|
B|--0h1-----0h1--1--0-----0--|
G|--0-------0----0--0-----0--|     This part leads into:
D|--3-------3----2--0-----0--|
A|--0-------0----3--2-----2--|
E|--1-------1----3--3-----3--|

[Bridge 1]
E|--1--1--3--1--1--1--3--1--|
B|--1--1--3--1--1--1--3--1--|
G|--1--5--7--5--1--5--7--5--|
D|--5--3--5--3--5--3--5--3--|
A|--3--1--3--1--3--1--3--1--|
E|--1--1--3--1--1--1--3--1--|

"So what so I've got a smile on...."

[Bridge 2]
E|--3--3--0--3--3--3--0--3--|
B|--3--3--3--3--3--3--3--3--|
G|--0--0--0--0--0--0--0--0--|
D|--0--2--4--2--0--2--4--2--|
A|--2--3--5--3--2--3--5--3--|
E|--3-----------3-----------|

"Don't believe me..."

[Bridge 3]
E|--7--5--0--0--|
B|--8--7--1--1--|
G|--7--7--3--0--|
D|--9--7--3--2--|
A|--7--5--x--3--|
E|--7--5--3--3--|

"When I say I've got it down...."

[Verse 3 Bridge]
E|--0-----0-----0-----0-----0--|
B|--3-----3-----3-----3-----2--|
G|--0-----2-----0-----2-----2--|
D|--2-----0-----0-----2-----2--|
A|--2-----0-----2-----0-----0--|
E|--0-----2-----3--------------|

"Everything happens for a reason is no reason not to ask my self...."

Thank you. - Deric Johnston

LEGEND:
| - slap
x - muted
h - hammer-on
p - pull-off
Suggest correction
Creating personal tab
Creating personal tab
You can edit any tab online and save it as your Personal.

You can edit, replace or remove any tab part or add personal notes – all changes will be seen only by you.

Personal tabs can be accessed anytime from any device, even offline.
Learn more »
Give kudos to tab author, rate the tab!
1 2 3 4 5
comments
print report bad tab
guest
You may want to rate the tab now too:
select rating
Wanna post a correction for this tab? Suggest correction