Oops, an error
Loading. Please wait.

Wildfire intro tab

version 1
version 1

Intro

Whole song

Interactive

15,763 views 24 this week
3 commentsread comments
1 2 3 4 5
x 16
add to favorites
×
Save as Personal and add changes to this tab that will be seen only by you. Learn more ›
×
You can save this tab as Personal to edit and correct it or add notes. All changes will be seen only by you. Learn more »
launch autoscroll
font size
0
reset
how to read this tab
guitar tuner
edit
Autoscroll
slow
fast
+/-
esc
set tempo
stop
Difficulty
intermediate
-------------------------------------------------------------------------------
                             WILDFIRE - John Mayer
-------------------------------------------------------------------------------
Tabbed by: Nicholas Moniz


Tuning: Standard EADGBe      h=hammer on / p=pull off

Once you get the speed down it sounds right

e|---11--11--------------------------------------------------------------------|
B|-----------11h13p11------11h13p11--------------------------------------------|
G|--------------------12-------------------------------------------------------|
D|------------------------------------13---------------------------------------|
A|-----------------------------------------------------------------------------|
E|-----------------------------------------------------------------------------|

Riff played over the above intro

e|-----------------------------------------------------------------------------|
B|-------11-13-----------11-13-------------------------------------------------|
G|------------12--------------12-12--------------------------------------------|
D|---------------13-----------------13-----------------------------------------|
A|-----------------------------------------------------------------------------|
E|-----------------------------------------------------------------------------|

            
            
Suggest correction
Creating personal tab
Creating personal tab
You can edit any tab online and save it as your Personal.

You can edit, replace or remove any tab part or add personal notes – all changes will be seen only by you.

Personal tabs can be accessed anytime from any device, even offline.
Learn more »
comments
print report bad tab
3 comments total.
0 reply
hojbjerg96 30 Jul 11, 2013 02:59 PM

Sounds good to me! :) Nice job

+1 reply
Stef1297 10 Jul 17, 2013 07:15 AM

I think this sounds more accurate for the intro:

e|--11br-11br--------------------------------------------------------------|
B|------------13p11h13-----------------------------------------------------|
G|--------------------12p10------------------------------------------------|
D|-------------------------13-13-------------------------------------------|
A|-------------------------------------------------------------------------|
E|-------------------------------------------------------------------------|

+1 reply
Stef1297 10 Jul 17, 2013 07:24 AM

And this for the riff played over the intro:

e|-------------------------------------------------------------------------|
B|-------11-13-----------11-13---------------------------------------------|
G|------------10br10----------11br11br-------------------------------------|
D|------------------13----------------13-----------------------------------|
A|-------------------------------------------------------------------------|
E|-------------------------------------------------------------------------|

guest
Wanna post a correction for this tab? Suggest correction