Oops, an error
Loading. Please wait.

Wildfire Tab

version 2
version 2

Intro

Whole song

Interactive

18,770 views 24 this week
6 commentsread comments
1 2 3 4 5
x 16
add to favorites
launch autoscroll
font size
0
reset
how to read this tab
guitar tuner
Autoscroll
slow
fast
+/-
esc
set tempo
stop
Help us to improve Ultimate-Guitar.com Take our survey!
×
Author
Difficulty
intermediate
Wildfire by John Mayer
----------------------

I tabbed this of the Letterman performance:
http://www.youtube.com/watch?v=_s9U3Lc8Byo


[Main Riff]

e|--11-11--11p8---8----------------|
B|---8--8-------11----11p8---8-----|
G|---8--8------------------10---8~-|
D|---------------------------------|
A|---------------------------------|
E|---------------------------------|

 Lead over the riff:
e|------------------------------------------------------|
B|-11--11b13---------------11--11b13--------------------|
G|-----------10b12--10-8~------------10b12-10b12--10-8~-|
D|------------------------------------------------------|
A|------------------------------------------------------|
E|------------------------------------------------------|



************************************

| p  Pull-off
| ~  Vibrato
| b  Bend

************************************
Suggest correction
comments
print report bad tab
6 comments total. Showing first comments.
0 reply
IceOrb 2,185 Aug 22, 2013 03:23 AM

The lead should be:
e------------------------------------------------------|
B-11--11b13---------------11--11b13--------------------|
G-----------10b12--10-8~------------10b12-10b12--10-8~-|
D------------------------------------------------------|
A------------------------------------------------------|
E------------------------------------------------------|

+2 reply
news_watch 10 Aug 26, 2013 10:58 PM

This is the right one.
Gotta get the timing right.

+1 reply
Iiphii 10 Mar 11, 2014 11:51 AM

The main riff should be:
e--11-11----8------8---------------------|
B---8--8------11p8-----11p8--------------|
G---8--8--------------------10-8---8~~~--|
D----------------------------------------|
A----------------------------------------|
E----------------------------------------|

guest
You may want to rate the tab now too:
select rating
Wanna post a correction for this tab? Suggest correction