Oops, an error
Loading. Please wait.

Wildfire tab

version 2
version 2

Whole song

Interactive

19,630 views 69 this week
3 commentsread comments
1 2 3 4 5
x 7
add to favorites
×
Save as Personal and add changes to this tab that will be seen only by you. Learn more ›
×
You can save this tab as Personal to edit and correct it or add notes. All changes will be seen only by you. Learn more »
launch autoscroll
font size
0
reset
how to read this tab
guitar tuner
edit
Autoscroll
slow
fast
+/-
esc
set tempo
stop
Author
-------------------------------------------------------------------------------
                             WILDDFIRE - John Mayer
-------------------------------------------------------------------------------
Tabbed by: Tom Arnold

Tuning: Standard

INTRO
Guitar 1 
e|------11-11----------------------------------------------------------------| 
B|------11-11---13p11p9h13---------------------------------------------------|
G|---------------------------12p10p8-8-8-------------------------------------|
D|---------------------------------------------------------------------------|
A|---------------------------------------------------------------------------|
E|---------------------------------------------------------------------------|

Guitar 2
e|---------------------------------------------------------------------------|
B|--------11-13--------------------11-13-------------------------------------|
G|--------------10b12-10-8---------------10b12-10b12--8----------------------|
D|---------------------------------------------------------------------------|
A|---------------------------------------------------------------------------|
E|---------------------------------------------------------------------------|

VERSE 1

Eb
River's strong, you can swim inside it
You can string some lights up here beside it
                                                                              
G#                                                 Eb
Tonight the moon's so bright you could drive with your headlights out
A#                                         G#          Gm     Eb
'Cause a little bit of summer's what the whole year's all about

CHORUS

Eb
You look fine, fine, fine, put your feet up next to mine
We can watch that borderline get higher and higher
Eb
Say, say, say in a different kind of way
You and me been catchin' on like a wildfire

VERSE 2

Eb
Don't get up just to get another, you can drink from mine
 we can't leave each other
G#
                                      Eb
We can dance with the dead, you can rest your head on the shoulder if you want to get
older than me
A#                                    G#    Gm     Eb
'Cause a little bit of summer makes a lot of history

CHORUS

Eb
You look fine, fine, fine, put your feet up next to mine
We can watch that borderline get higher and higher
Eb
Say, say, say ain't it been some kind of day
You and me been catchin' on like a wildfire

BRIDGE

G# F# G# F#

G#
I got a rock from the river in my medicine bag
F#
Magpie Feather in my medicine bag

G# A#

CHORUS

Eb
Say, say, say ain't it been some kind of day
You and me been catchin' on like a wildfire

Outro

Eb G# Eb G# Eb G#
Suggest correction
Creating personal tab
Creating personal tab
You can edit any tab online and save it as your Personal.

You can edit, replace or remove any tab part or add personal notes – all changes will be seen only by you.

Personal tabs can be accessed anytime from any device, even offline.
Learn more »
comments
print report bad tab
3 comments total.
0 reply
CheddyRoosevelt 10 Nov 15, 2013 10:13 AM

Fantastic tab. I know the key is is Eb major and the intro is the Eb major scale at the 11th position, but:

What scales would you solo in? I'm tone deaf and can't tell what he's doing.

Also, how would I go about achieving his tone? Tons of reverb, mostly clean? Am I missing anything?

Is there a way to imitate the slide guitar's tone?

Thanks.

0 reply
tarnold1274 63 Mar 30, 2015 02:19 PM

I just use Eb major throughout but you can change position up the neck, also mostly clean, I use neck pickup although I don't know what he uses

guest
You may want to rate the tab now too:
select rating
Wanna post a correction for this tab? Suggest correction