Oops, an error
Loading. Please wait.

Xo Tab

23,067 views 87 this week
5 commentsread comments
1 2 3 4 5
excellent!
x 26
add to favorites
launch autoscroll
font size
0
reset
how to read this tab
guitar tuner
Tab Pro tools
  • play this tab
  • loop segment
  • change instrument
  • show fretboard
  • metronome
×
Best way to learn
"Xo"
Autoscroll
slow
fast
+/-
esc
set tempo
stop
Difficulty
Capo
novice
2nd fret
-------------------------------------------------------------------------------
                             Xo (Beyoncé Cover) - John Mayer
-------------------------------------------------------------------------------
Tabbed by: dodgyhodgie
E-mail: jake.hodges@hotmail.co.uk

Tuning: Standard (EADGBe)
CAPO 2nd

| denotes emphasis

Structure:
Verse 1
Pre-Chorus
Verse 2
Pre-Chorus
Chorus
Pre-Chorus

INTRO:
   C           Cmaj7                C           C6
   |           |          |         |           |          |
e|-0--0-0-0-0--0--0-0-0-0-0--0-0----0--0-0-0-0--0--0-0-0-0-0--0-0------------| x2
B|-1--1-1-1-1--0--0-0-0-0-0--0-0----x--x-x-x-x--x--x-x-x-x-x--x-x------------|
G|-0--0-0-0-0--0--0-0-0-0-0--0-0----0--0-0-0-0--2--2-2-2-2-2--2-2------------|
D|-2--2-2-2-2--2--2-2-2-2-2--2-2----2--2-2-2-2--2--2-2-2-2-2--2-2------------|
A|-3--3-3-3-3--3--3-3-3-3-3--3-3----3--3-3-3-3--3--3-3-3-3-3--3-3------------|
E|-0--0-0-0-0--0--0-0-0-0-0--0-0----0--0-0-0-0--0--0-0-0-0-0--0-0------------|
   Harmonica...

VERSE:
             C           Cmaj7                C           C6
             |           |          |         |           |          |
          e|-0--0-0-0-0--0--0-0-0-0-0--0-0----0--0-0-0-0--0--0-0-0-0-0--0-0------------| x2
          B|-1--1-1-1-1--0--0-0-0-0-0--0-0----x--x-x-x-x--x--x-x-x-x-x--x-x------------|
          G|-0--0-0-0-0--0--0-0-0-0-0--0-0----0--0-0-0-0--2--2-2-2-2-2--2-2------------|
          D|-2--2-2-2-2--2--2-2-2-2-2--2-2----2--2-2-2-2--2--2-2-2-2-2--2-2------------|
          A|-3--3-3-3-3--3--3-3-3-3-3--3-3----3--3-3-3-3--3--3-3-3-3-3--3-3------------|
          E|-0--0-0-0-0--0--0-0-0-0-0--0-0----0--0-0-0-0--0--0-0-0-0-0--0-0------------|
Verse 1:
Your love is bright as ever................................................ (1st time)
        Even in the shadows................................................ (2nd time)
Verse 2:
    We don't have forever.................................................. (1st time)
        Baby daylight's wasting............................................ (2nd time)

             Fmaj7       Fmaj7sus4            Fmaj7       Fmaj7sus4
             |           |          |         |           |          |
          e|-0--0-0-0-0--0--0-0-0-0-0--0-0----0--0-0-0-0--0--0-0-0-0-0--0-0------------|
          B|-1--1-1-1-1--0--0-0-0-0-0--0-0----x--x-x-x-x--3--3-3-3-3-3--3-3------------|
          G|-2--2-2-2-2--2--2-2-2-2-2--2-2----2--2-2-2-2--2--2-2-2-2-2--2-2------------|
          D|-3--3-3-3-3--3--3-3-3-3-3--3-3----3--3-3-3-3--3--3-3-3-3-3--3-3------------|
          A|-3--3-3-3-3--3--3-3-3-3-3--3-3----3--3-3-3-3--3--3-3-3-3-3--3-3------------|
          E|---------------------------------------------------------------------------|
Verse 1:
        Baby kiss me....................................Before they turn the lights out
Verse 2:
You'd better kiss me....................................Before our time is run out

             C           Cmaj7                C           C6
             |           |          |         |           |          |
          e|-0--0-0-0-0--0--0-0-0-0-0--0-0----0--0-0-0-0--0--0-0-0-0-0--0-0------------|
          B|-1--1-1-1-1--0--0-0-0-0-0--0-0----x--x-x-x-x--x--x-x-x-x-x--x-x------------|
          G|-0--0-0-0-0--0--0-0-0-0-0--0-0----0--0-0-0-0--2--2-2-2-2-2--2-2------------|
          D|-2--2-2-2-2--2--2-2-2-2-2--2-2----2--2-2-2-2--2--2-2-2-2-2--2-2------------|
          A|-3--3-3-3-3--3--3-3-3-3-3--3-3----3--3-3-3-3--3--3-3-3-3-3--3-3------------|
          E|-0--0-0-0-0--0--0-0-0-0-0--0-0----0--0-0-0-0--0--0-0-0-0-0--0-0------------|
Verse 1:
             ..............................................................
Verse 2:
             ..............................................................

             C           Cmaj7                C           C6
             |           |          |         |           |          |
          e|-0--0-0-0-0--0--0-0-0-0-0--0-0----0--0-0-0-0--0--0-0-0-0-0--0-0------------| x2
          B|-1--1-1-1-1--0--0-0-0-0-0--0-0----x--x-x-x-x--x--x-x-x-x-x--x-x------------|
          G|-0--0-0-0-0--0--0-0-0-0-0--0-0----0--0-0-0-0--2--2-2-2-2-2--2-2------------|
          D|-2--2-2-2-2--2--2-2-2-2-2--2-2----2--2-2-2-2--2--2-2-2-2-2--2-2------------|
          A|-3--3-3-3-3--3--3-3-3-3-3--3-3----3--3-3-3-3--3--3-3-3-3-3--3-3------------|
          E|-0--0-0-0-0--0--0-0-0-0-0--0-0----0--0-0-0-0--0--0-0-0-0-0--0-0------------|
Verse 1:
        Your heart is glowing.............................................. (1st time)
     And I'm crashing into you............................................. (2nd time)
Verse 2:
      Nobody sees what we see.............................................. (1st time)
They're just hopelessly gazing...................................Ooh baby.. (2nd time)

             Fmaj7       Fmaj7sus4            Fmaj7       Fmaj7sus4
             |           |          |         |           |          |
          e|-0--0-0-0-0--0--0-0-0-0-0--0-0----0--0-0-0-0--0--0-0-0-0-0--0-0------------|
          B|-1--1-1-1-1--0--0-0-0-0-0--0-0----x--x-x-x-x--3--3-3-3-3-3--3-3------------|
          G|-2--2-2-2-2--2--2-2-2-2-2--2-2----2--2-2-2-2--2--2-2-2-2-2--2-2------------|
          D|-3--3-3-3-3--3--3-3-3-3-3--3-3----3--3-3-3-3--3--3-3-3-3-3--3-3------------|
          A|-3--3-3-3-3--3--3-3-3-3-3--3-3----3--3-3-3-3--3--3-3-3-3-3--3-3------------|
          E|---------------------------------------------------------------------------|
Verse 1:
        Baby kiss me.....kiss me........................Before they turn the lights out
Verse 2:
             take me.....take me........................Before they turn the lights out

             C           Cmaj7                C           C6
             |           |          |         |           |          |
          e|-0--0-0-0-0--0--0-0-0-0-0--0-0----0--0-0-0-0--0--0-0-0-0-0--0-0------------|
          B|-1--1-1-1-1--0--0-0-0-0-0--0-0----x--x-x-x-x--x--x-x-x-x-x--x-x------------|
          G|-0--0-0-0-0--0--0-0-0-0-0--0-0----0--0-0-0-0--2--2-2-2-2-2--2-2------------|
          D|-2--2-2-2-2--2--2-2-2-2-2--2-2----2--2-2-2-2--2--2-2-2-2-2--2-2------------|
          A|-3--3-3-3-3--3--3-3-3-3-3--3-3----3--3-3-3-3--3--3-3-3-3-3--3-3------------|
          E|-0--0-0-0-0--0--0-0-0-0-0--0-0----0--0-0-0-0--0--0-0-0-0-0--0-0------------|
Verse 1:
             ..........Before they turn the lights out...Ooh baby love me lights out
Verse 2:
             ..........Before time is run out....Ooh baby love me lights out

PRE-CHORUS:
             C
             |           |          |         |           |          |
          e|-0--0-0-0-0--0--0-0-0-0-0--0-0----0--0-0-0-0--0--0-0-0-0-0--0-0------------|
          B|-1--1-1-1-1--1--1-1-1-1-1--1-1----1--1-1-1-1--1--1-1-1-1-1--1-1------------|
          G|-0--0-0-0-0--0--0-0-0-0-0--0-0----0--0-0-0-0--0--0-0-0-0-0--0-0------------|
          D|-2--2-2-2-2--2--2-2-2-2-2--2-2----2--2-2-2-2--2--2-2-2-2-2--2-2------------|
          A|-3--3-3-3-3--3--3-3-3-3-3--3-3----3--3-3-3-3--3--3-3-3-3-3--3-3------------|
          E|-0--0-0-0-0--0--0-0-0-0-0--0-0----0--0-0-0-0--0--0-0-0-0-0--0-0------------|
               In the darkest night hour...................................
  
             Am
             |           |          |         |           |          |
          e|-0--0-0-0-0--0--0-0-0-0-0--0-0----0--0-0-0-0--0--0-0-0-0-0--0-0------------|
          B|-1--1-1-1-1--1--1-1-1-1-1--1-1----1--1-1-1-1--1--1-1-1-1-1--1-1------------|
          G|-2--2-2-2-2--2--2-2-2-2-2--2-2----2--2-2-2-2--2--2-2-2-2-2--2-2------------|
          D|-2--2-2-2-2--2--2-2-2-2-2--2-2----2--2-2-2-2--2--2-2-2-2-2--2-2------------|
          A|-0--0-0-0-0--0--0-0-0-0-0--0-0----0--0-0-0-0--0--0-0-0-0-0--0-0------------|
          E|-0--0-0-0-0--0--0-0-0-0-0--0-0----0--0-0-0-0--0--0-0-0-0-0--0-0------------|
               I'll search through the crowd....................Your face is
  
             F                                G
             |           |          |         |           |          |
          e|-1--1-1-1-1--1--1-1-1-1-1--1-1----3--3-3-3-3--3--3-3-3-3-3--3-3------------|
          B|-1--1-1-1-1--1--1-1-1-1-1--1-1----3--3-3-3-3--3--3-3-3-3-3--3-3------------|
          G|-2--2-2-2-2--2--2-2-2-2-2--2-2----0--0-0-0-0--0--0-0-0-0-0--0-0------------|
          D|-3--3-3-3-3--3--3-3-3-3-3--3-3----0--0-0-0-0--0--0-0-0-0-0--0-0------------|
          A|-3--3-3-3-3--3--3-3-3-3-3--3-3----2--2-2-2-2--2--2-2-2-2-2--2-2------------|
          E|-1--1-1-1-1--1--1-1-1-1-1--1-1----3--3-3-3-3--3--3-3-3-3-3--3-3------------|
             all that I see....I'll give you  everything..Baby love me lights out
  
             C
             |           |          |         |           |          |
          e|-0--0-0-0-0--0--0-0-0-0-0--0-0----0--0-0-0-0--0--0-0-0-0-0--0-0------------|
          B|-1--1-1-1-1--1--1-1-1-1-1--1-1----1--1-1-1-1--1--1-1-1-1-1--1-1------------|
          G|-0--0-0-0-0--0--0-0-0-0-0--0-0----0--0-0-0-0--0--0-0-0-0-0--0-0------------|
          D|-2--2-2-2-2--2--2-2-2-2-2--2-2----2--2-2-2-2--2--2-2-2-2-2--2-2------------|
          A|-3--3-3-3-3--3--3-3-3-3-3--3-3----3--3-3-3-3--3--3-3-3-3-3--3-3------------|
          E|-0--0-0-0-0--0--0-0-0-0-0--0-0----0--0-0-0-0--0--0-0-0-0-0--0-0------------|
             ............Baby love me lights out...........................
            (............Baby love me lights out..........You can turn my lights out) (outro)

CHORUS:
             C
             |           |          |         |           |          |
          e|-0--0-0-0-0--0--0-0-0-0-0--0-0----0--0-0-0-0--0--0-0-0-0-0--0-0------------|
          B|-1--1-1-1-1--1--1-1-1-1-1--1-1----1--1-1-1-1--1--1-1-1-1-1--1-1------------|
          G|-0--0-0-0-0--0--0-0-0-0-0--0-0----0--0-0-0-0--0--0-0-0-0-0--0-0------------|
          D|-2--2-2-2-2--2--2-2-2-2-2--2-2----2--2-2-2-2--2--2-2-2-2-2--2-2------------|
          A|-3--3-3-3-3--3--3-3-3-3-3--3-3----3--3-3-3-3--3--3-3-3-3-3--3-3------------|
          E|-0--0-0-0-0--0--0-0-0-0-0--0-0----0--0-0-0-0--0--0-0-0-0-0--0-0------------|
               I love you like XO...............You love me like XO.........

             Am
             |           |          |         |           |          |
          e|-0--0-0-0-0--0--0-0-0-0-0--0-0----0--0-0-0-0--0--0-0-0-0-0--0-0------------|
          B|-1--1-1-1-1--1--1-1-1-1-1--1-1----1--1-1-1-1--1--1-1-1-1-1--1-1------------|
          G|-2--2-2-2-2--2--2-2-2-2-2--2-2----2--2-2-2-2--2--2-2-2-2-2--2-2------------|
          D|-2--2-2-2-2--2--2-2-2-2-2--2-2----2--2-2-2-2--2--2-2-2-2-2--2-2------------|
          A|-0--0-0-0-0--0--0-0-0-0-0--0-0----0--0-0-0-0--0--0-0-0-0-0--0-0------------|
          E|-0--0-0-0-0--0--0-0-0-0-0--0-0----0--0-0-0-0--0--0-0-0-0-0--0-0------------|
               You kill me girl XO..............You love me like XO........
  
             F                                G
             |           |          |         |           |          |
          e|-1--1-1-1-1--1--1-1-1-1-1--1-1----3--3-3-3-3--3--3-3-3-3-3--3-3------------|
          B|-1--1-1-1-1--1--1-1-1-1-1--1-1----3--3-3-3-3--3--3-3-3-3-3--3-3------------|
          G|-2--2-2-2-2--2--2-2-2-2-2--2-2----0--0-0-0-0--0--0-0-0-0-0--0-0------------|
          D|-3--3-3-3-3--3--3-3-3-3-3--3-3----0--0-0-0-0--0--0-0-0-0-0--0-0------------|
          A|-3--3-3-3-3--3--3-3-3-3-3--3-3----2--2-2-2-2--2--2-2-2-2-2--2-2------------|
          E|-1--1-1-1-1--1--1-1-1-1-1--1-1----3--3-3-3-3--3--3-3-3-3-3--3-3------------|
             All that I see..........Give you everything...Baby love me lights out
  
             C
             |           |          |         |           |          |
          e|-0--0-0-0-0--0--0-0-0-0-0--0-0----0--0-0-0-0--0--0-0-0-0-0--0-0------------|
          B|-1--1-1-1-1--1--1-1-1-1-1--1-1----1--1-1-1-1--1--1-1-1-1-1--1-1------------|
          G|-0--0-0-0-0--0--0-0-0-0-0--0-0----0--0-0-0-0--0--0-0-0-0-0--0-0------------|
          D|-2--2-2-2-2--2--2-2-2-2-2--2-2----2--2-2-2-2--2--2-2-2-2-2--2-2------------|
          A|-3--3-3-3-3--3--3-3-3-3-3--3-3----3--3-3-3-3--3--3-3-3-3-3--3-3------------|
          E|-0--0-0-0-0--0--0-0-0-0-0--0-0----0--0-0-0-0--0--0-0-0-0-0--0-0------------|
             ..........Baby love me lights out........You can turn my lights out

comments
print report bad tab
5 comments total. Showing first comments.
0 reply
blur819 wrote on May 25 2014, 07:20 pm

yes sir... nailed it. the others are no bueno. thx man

0 reply
jakehodges93 wrote on May 26 2014, 09:31 am

cheers blur819, my first tab!

0 reply
paulginaz wrote on May 26 2014, 11:30 am

Awesome, dead on.

I want to post or [tab]
guest
You may want to rate the tab now too:
select rating
Please do not post tabs as comments. Select "correction" instead!