Oops, an error
Loading. Please wait.
We have Chord Pro version of Your Body Is A Wonderland.
It's the closest thing you can get to the original song and it has interactive parts. Check out the tab »
×
69,410 views 33 this week
1 commentread comment
1 2 3 4 5
x 14
add to favorites
×
Save as Personal and add changes to this tab that will be seen only by you. Learn more ›
×
You can save this tab as Personal to edit and correct it or add notes. All changes will be seen only by you. Learn more »
launch autoscroll
font size
0
reset
how to read this tab
guitar tuner
edit
Autoscroll
slow
fast
+/-
esc
set tempo
stop
Author
John Mayer's Your Body Is A Wonderland Solo..hope you like it..
tabbed by foxy carlos

 Damn baby
 You frusterate me
 I know you're mine all mine all mine
 But you look so good it hurts sometimes..
 
  [Solo]
e|-12-8-------------------||-12-8----10----12-|
B|------10-8-6--6/8--10\8-||------10----12-12-|
G|-12-9-------------------||-12-9----10----12-|
D|------10-8-7--7/9--10\8-||------10----12----|
A|------------------------||------------------|
E|------------------------||------------------|

e|-12-8-------------------||-12-8----10------15-|
B|------10-8-6--6/8--10\8-||------10----12------|
G|-12-9-------------------||-12-9----10------16-|
D|------10-8-7--7/9--10\8-||------10----12------|
A|------------------------||--------------------|
E|------------------------||--------------------|
 
 ANY COMMENTS AND/OR VIOLENT REACTIONS JUST EMAIL ME 
 foxy_carlos@yahoo.com

************************************

| /  Slide up
| \  Slide down

************************************

            
            
Suggest correction
Creating personal tab
Creating personal tab
You can edit any tab online and save it as your Personal.

You can edit, replace or remove any tab part or add personal notes – all changes will be seen only by you.

Personal tabs can be accessed anytime from any device, even offline.
Learn more »
comments
print report bad tab
1 comment total.
+4 reply
ThomasOverMany 10 Mar 18, 2010 09:58 AM

This is actually the way John Mayer plays it.
e:-12-8-------------------][-12-8----10-------]
B:------10-8-6--6/8--10\8-][------10----12----]
G:-12-9-------------------][-12-9----10-------]
D:------10-8-7--7/9--10\8-][------10----12----]
A:------------------------][------------------]
E:------------------------][------------------]

e:-12-8-------------------][-12-8----15-12----]
B:------10-8-6--6/8--10\8-][------10----------]
G:-12-9-------------------][-12-9----15-12----]
D:------10-8-7--7/9--10\8-][------10----------]
A:------------------------][------------------]
E:------------------------][------------------]

guest
You may want to rate the tab now too:
select rating
Wanna post a correction for this tab? Suggest correction