Oops, an error
Loading. Please wait.

Your Body Is A Wonderland Bass Tab

version 3
version 3
3,310 views 3 this week
no commentswrite comment
1 2 3 4 5
worth learning
x 1
add to favorites
launch autoscroll
font size
0
reset
guitar tuner
Tab Pro tools
  • play this tab
  • loop segment
  • change instrument
  • show fretboard
  • metronome
×
Best way to learn
"Your Body Is A Wonderland"
Autoscroll
slow
fast
+/-
esc
set tempo
stop
Contributor
YOUR BODY IS A WONDERLAND – JOHN MAYER


after "discovering you"
|--------------------------|
|---------7-5--------------|
|-------------7----7-5-2---|
|--------------------------|

VERSE 2
|------------------------|
|------------------------|
|-----1-3--3-1---1--3—3--|
|--1-1----3-----1--------|(4x)


REFRAIN :


|-----------------------|----------------------|
|-----------------------|----------------------|
|--1------0-------------|--3-------------3--3--|
|-----------------3--1--|-------------3--------|(3x)

|------------------------|-----------------------|
|------------------------|-----------------------|
|------------------------|-----------------------|
|--3--3----3--5--5----5--|--6--6----6--8----8----|


CHORUS :
|------------------------|
|----3-------------------|
|------1-3---3-1-—1-3—3--|
|--1--1-----3----1-------|(3x)
VERSE 3:
|------------------------|
|----3-------------------|
|------1-3---3-1-—1-3—3--|
|--1--1-----3----1-------|(4x)

REFRAIN :

|-----------------------|----------------------|
|--8------7-------5-----|-10------------10-10--|
|--------------------8--|------------10--------|
|-----------------------|----------------------|(3x)



|------------------------|-----------------------|
|------------------------|-----------------------|
|------------------------|-----------------------|
|--3--3----3--5--5----5--|--6--6----6--8----8----|


CHORUS :
|------------------------|
|----3-------------------|
|------1-3---3-1-—1-3—3--|
|--1--1-----3----1-------|(3x)



BRIDGE :

|----------------------|----------------------|   
|----------------------|----------12----12/---|   
|--5-------3--5--------|----------------------|   
|--------5-------------|----------------------|  

|----------------------|----------------------|  
|----------------------|----------14/15-14----|   
|--5-------3--5--------|----------------------|  
|--------5-------------|----------------------|

|----------------------|----------------------|  
|----------------------|----14/15-14/15—14----|   
|--5-------3--5--------|----------------------|  
|--------5-------------|----------------------|

|----------------------|----------------------|  
|----------------------|----------------------|   
|--5-------3--5/-------|-------15----15-------|  
|--------5-------------|----------------------|

ADLIB:

|----------------------|----------------------|   
|----------------------|----------------------|   
|--5-------3--5--------|---3-5-------5-3------|   
|--------5-------------|-5---------5------3---|(4x)

|----------------------|----------------------|
|-------------12—-12/--|----------------------|
|--5-------------------|----------------------|
|----------------------|----------------------|



 
 


CHORUS :

|------------------------|
|------------------------|
|---5---3----------------|
|----------5--6----------|





|------------------------|
|----3-------------------|
|------1-3---3-1-—1-3—3--|
|--1--1-----3----1-------|(3x)
|------------------------|
|----3-------------------|
|------1-3---3-1-—1-3—3--|
|--1--1-----3----1-------|(3x)
|------------------------|
|----3-------------------|
|------1-3---3-1-—1-3—3--|
|--1--1-----3----1-------|(3x)









Intro 

(1) We've got the afternoon 
You've got this room for two 
One thing I've left to do 
Discover me discovering you 

(1) One mile to every inch of 
your skin like porcelain 
One pair of candy lips 
and your bubblegum tongue 

(2) And if you want love 
we'll make it 
Swimming a deep sea 
of blankets 
take all your big plans 
and break 'em 
this is bound to be a while 

(3) Your body is a wonderland 
Your body is a wonder I'll use my hands 
Your body is a wonderland 

(1) Something about the way the hair falls in your face 
I love the shape you take when crawling towards the pillow case 
You tell me where to go though I might leave to find it 
I'll never let your head hit the bed without my hand behind it 

(2) You want love 
we'll make it 
Swimming a deep sea 
of blankets 
Take all your big plans 
and break 'em 
this is bound to be awhile 

(3) Your body is a wonderland 
Your body is a wonder I'll use my hands 

(4) Damn, baby 
You frustrate me 
I know you're mine all mine all mine 
but you look so good it hurts sometimes 

Jam

(3) Your body is a wonderland 
Your body is a wonder I'll use my hands 
Your body is a wonderland 
Your body is a wonderland
comments
We did not receive enough feedback on this tab! Please rate:
print report bad tab
1 2 3 4 5
I want to post or [tab]
guest
You may want to rate the tab now too:
select rating
Please do not post tabs as comments. Select "correction" instead!