Oops, an error
Loading. Please wait.
We have Chord Pro version of Your Body Is A Wonderland.
It's the closest thing you can get to the original song and it has interactive parts. Check out the tab »
×
1,424 views 9 this week
1 commentread comment
1 2 3 4 5
x 4
add to favorites
launch autoscroll
font size
0
reset
guitar tuner
Autoscroll
slow
fast
+/-
esc
set tempo
stop
Author
Difficulty
intermediate
=================================================
JOHN MAYER - Your Body is a Wonderland (BASS TAB)
=================================================

This is my bass rendition of the song.
If you'd like to have a better idea of it, feel free to watch my video on YouTube 
(http://www.youtube.com/user/GodasJr1)


Standard E Tuning

/ means slide up
\ means slide down


Bass starts playing after "discover me, discovering you" line.


INTRO LICK LEADING TO VERSE
---------------------------

G|------------------|      -------------------|
D|--5-7-5-----------|      ----5-7-5----3-----|
A|--------8--8-5----|  OR  ----------8----5-3-|
E|---------------8--|      -------------------|

And goes directly to the verse...


VERSE
-----


G|-------------|------------|------|
D|-------------|------------|------|
A|--------1-3--|---3-1----1-|-3--3-|  (x4)
E|--1---1------|-1------1---|------|


PRE-CHORUS 
----------
"And if you want love..."


G|-------------|-------------|
D|-------------|-------------|
A|--1----0-----|---3-----3-3-| (x3)
E|-----------3-|-1-----3-----|


"This is bound..."

G|----------------------------|
D|----------------------------|
A|----------------------------|
E|--3---3-5---5-6---6-8--8\---|


CHORUS (Same as verse, but adding a quick octave on the F from here on to the end of the song)
------


G|------------|------------|------|
D|---3--------|------------|------|
A|--------1-3-|---3-1----1-|-3--3-| (x3)
E|--1---1-----|-1------1---|------|


VERSE 2
-------


G|------------|------------|------|
D|---3--------|------------|------|
A|--------1-3-|---3-1----1-|-3--3-|
E|--1---1-----|-1------1---|------|

G|------------|------------|------------|
D|---3--------|------------|------------|
A|--------1-3-|---3-1----1-|-3--5-7-5---|
E|--1---1-----|-1------1---|----------8-|

G|------------|------------|------|
D|------------|------------|------|
A|--------1-3-|---3-1----1-|-3--3-|
E|--1---1-----|-1------1---|------|

G|------------|------------|------|
D|---3--------|------------|------|
A|--------1-3-|---3-1----1-|-3--3-|
E|--1---1-----|-1------1---|------|



PRE-CHORUS 2
------------
"You want love, will make it..."


G|-------------|-----------------|-------------|-------------|
D|--8---7------|--10------10-10--|--8---7------|-10----------|
A|---------10--|-8------10-------|---------10--|------10-----|
E|-------------|-----------------|-------------|---------8-8-|

G|---------------------|-------------------|
D|--8--8-7--7----------|--10-------10------|
A|------------10--10-8-|-8------10----10---|
E|---------------------|-----------------8-|


"This is bound..."
G|--------------------------|
D|--------------------------|
A|--------------------------|
E|--3---3-5---5-6---6-8--8\-|


REPEAT CHORUS


BRIDGE (You can replace the C[8] in the E string to the C[3] in the A string if you prefer)
------
                            
                            "Damn, baby..."
G|----------|-----------------------------------|
D|----------|-----------------------------------|
A|--5-------|-5-(let it ring)--////--15--15-\\\-|
E|------5-8-|-----------------------------------|
                         
                            "You frustrate me..."
G|----------|-----------------------------------|
D|----------|-----------------------------------|
A|--5-------|-5-(let it ring)--////--17--15-\\\-|
E|------5-8-|-----------------------------------|

                   "I know you're mine, all mine..."
G|----------|----------------------------------------|
D|----------|----------------------------------------|
A|--5-------|-5-(let it ring)--////--18-17/18\17-\\\-|
E|------5-8-|----------------------------------------|

                   "But you look so good..."
G|----------|-------------------------------------|
D|----------|-------------------------------------|
A|--5-------|-5-(let it ring)--////--13--13-\\\\\-|
E|------5-8-|-------------------------------------|


SOLO
----


G|----------|---------|--------------|
D|----------|---------|--------------|
A|--5-------|-5-------|-5-----5--3---| (x4)
E|------5-8-|-----5-8-|-----5------3-|

G|---------------------------------------|
D|---------------------------------------|
A|--5-(let it ring)-////-15-----15\\\\\\-|
E|---------------------------------------|


LICK LEADING TO FINAL CHORUS
-----------------------------

G|----------------|
D|----------------|
A|-3-5-3----------|
E|-------5--5\\\\-|


----------------------------
REPEAT CHORUS UNTIL FADE OUT
----------------------------


Hope this tab's helpful and clear, but of course, it's always good to play it 
along the track to understand how it goes along. Feel free to rate, comment and all that! :)

Cheers!

João Godinho
Suggest correction
comments
print report bad tab
1 comment total.
0 reply
heebzo 10 Dec 18, 2012 05:42 PM

very very helpful!

guest
You may want to rate the tab now too:
select rating
Wanna post a correction for this tab? Suggest correction