Oops, an error
Loading. Please wait.

Youre Gonna Live Forever In Me chords

version 3
version 3

Whole song

  • Specific, corrected chords true to the key with re... Show more
4,927 views 78 this week
no commentswrite comment
1 2 3 4 5
x 7
add to favorites
×
Save as Personal and add changes to this tab that will be seen only by you. Learn more ›
×
You can save this tab as Personal to edit and correct it or add notes. All changes will be seen only by you. Learn more »
launch autoscroll
font size
0
reset
transpose
0
reset
simplify chords
display chords
guitar tuner
edit
Autoscroll
slow
fast
+/-
esc
set tempo
stop
Author
Difficulty
About this tab version
Specific, corrected chords true to the key with recommended fingerings, labeled and timed sections, strumming pattern. Was this info helpful? Yes No
Strumming Is this strumming pattern correct? Yes No
Whole song (suggested) 68 bpm
1
2
3
4
Listen
====TAB====

CHORUS
e|-0-0-0-0-|-3-3-3---|-5-5-5---|-5-5-5---|
B|-1-1-1-1-|-0-0-0---|-5-5-5---|-7-7-7---|
G|-0-0-0-0-|-0-0-0---|-5-5-5---|-7-7-7---|
D|-2-2-2-2-|-0-0-0---|-7-7-5---|-0-4-7---|
A|-3-3-3-3-|-2-0-2---|-0-------|---------|
E|---0-2-3-|-3-------|---8-----|---------|

Intro Verse
e|-3-3-3-3-|-0-3-3-3-|-3-3-3-3-|-0-2-0---|
B|-3-3-3-3-|-1-3-4-4-|-0-0-0-0-|-2-2-2---|
G|-0-0-0-0-|-0-0-5-5-|-0-0-0-0-|-2-2-0---|
D|-0-0-0-0-|-2-0-5-5-|-2-2-2-2-|-2-4-2---|
A|-2-2-2-2-|-3-2-0-0-|-2-2-2-2-|-0-4-0---|
E|-3-2-1-0-|---------|-0-2-3---|-0-2-3---|


Verses 1/2/4
e|-3-3-3-3-|-0-3-3-3-|-3-3-3-3-|-0-0-0---|
B|-3-3-3-3-|-1-3-4-4-|-0-0-0-0-|-2-2-2---|
G|-0-0-0-0-|-0-0-5-5-|-0-0-0-0-|-2-2-0---|
D|-0-0-0-0-|-2-0-5-5-|-2-2-2-2-|-2-2-2---|
A|-2-2-2-2-|-3-2-0-0-|-2-2-2-2-|-0-0-0---|
E|-3-2-1-0-|---------|-0-2-3---|-0-2-3---|
                                   ^
                               different chord from intro

Verse 3/Interlude Verse
e|-3-3-3-3-|-0-3-3-3-|-3-3-3-3-|-5-5-5---|
B|-3-3-3-3-|-1-0-1-1-|-0-0-0-0-|-5-5-5---|
G|-0-0-0-0-|-0-0-2-2-|-0-0-0-0-|-6-6-6---|
D|-0-0-0-0-|-2-0-1-1-|-2-2-2-2-|-7-7-5---|
A|-2-2-2-2-|-3-------|-2-2-2-2-|-4-4-----|
E|-3-2-1-0-|-0-------|-0-2-3-0-|---------|
               ^ ^               ^
         different roots from the other verses

==END TAB==


ORDER: I V1 C1 V2 C2 V3 C3 INT V4 FC O


[INTRO]
G   Gmaj7/F# G7/F  Em7
C   G/B      Am7-5
Em  Em/F#    Em/G  Em/B
A/E F#m      A7/G

C   C/E      C/F#  C/G
G   G/A      G/B
Am  Am/C     Am7/G
D   D/F#     D7/A


[VERSE 1]
  G         Gmaj7/F#    G7/F     Em7     
A great big bang    and dinosaurs
  C       G/B      Am7-5
Fiery rain - ing meteors
   Em       Em/F#   Em/G         A/E A/F# A7/G
It all ends un - for  -  tunately


[CHORUS 1]
    C            C/E      C/F#     C/G  | G G/A G/B
But you're gonna live fore  -  ver in me...
           Am  Am/C Am7/G
I'll guarantee,
             D   D/F#  D7/A
just wait and see


[VERSE 2]
G         Gmaj7/F#    G7/F     Em7 
Parts of me were made by  you
    C           G/B      Am7-5
And planets keep   their distance too
   Em       Em/F#   Em/G              A/E A/F# A7/G
The moon's got a grip on the sea


[CHORUS 2]
    C            C/E      C/F#     C/G  | G G/A G/B
And you're gonna live fore  -  ver in me...
           Am  Am/C Am7/G
I guarantee,
               D   D/F# D7/A
it's your destiny


[VERSE 3]
(add different cello bass part)
G           Gmaj7/F#        G7/F
Life is full        of sweet    mistakes
          C/E     G/D        Am7-5/Eb
And love's   an ho - nest one        to make
Em          Em/F#     Em/G   Em             A/C#  A7
Time leaves no   fruit    on the tree


[CHORUS 3]
    C            C/E      C/F#     C/G  | G G/A G/B
But you're gonna live fore  -  ver in me...
           Am  Am/C Am7/G
I guarantee,
               D   D/F# D7/A
it's just meant to be


[INTERLUDE]
(one verse, one chorus)
G   Gmaj7/F# G7/F
C/E G/D      Am7-5/Eb
Em  Em/F#    Em/G    Em
A/E A/C#     A

C   C/E      C/F#  C/G
G   G/A      G/B
Am  Am/C     Am7/G
D   D/F#     D7/A


[VERSE 4]
    G          Gmaj7/F#          G7/F        Em7 
And when the pa    -    stor asks    the pews
    C         G/B         Am7-5
For reasons he   can't mar  -  ry you
Em        Em/F#    Em/G                      A/E A/F# A7/G
I'll keep my   word    and my seat


[FINAL CHORUS]
    C            C/E      C/F#     C/G  | G G/B G/B
But you're gonna live fore  -  ver in me...
           Am  Am/C Am7/G
I'll guarantee,
             D   D/F# D7/A
just wait and see


[OUTRO]
D   D/F# D7/A
(whistling)
D   D/F# D7/A
D   D/F# D7/A

            
            
Suggest correction
Creating personal tab
Creating personal tab
You can edit any tab online and save it as your Personal.

You can edit, replace or remove any tab part or add personal notes – all changes will be seen only by you.

Personal tabs can be accessed anytime from any device, even offline.
Learn more »
comments
print report bad tab
guest
You may want to rate the tab now too:
select rating
Wanna post a correction for this tab? Suggest correction