Oops, an error
Loading. Please wait.

Guardian Angel Tab

version 3
version 3

Whole song

Interactive

5,145 views 15 this week
no commentswrite comment
1 2 3 4 5
excellent!
x 5
add to favorites
launch autoscroll
font size
0
reset
how to read this tab
guitar tuner
Autoscroll
slow
fast
+/-
esc
set tempo
stop
Help us to improve Ultimate-Guitar.com Take our survey!
×
                            Guardian Angel                                 


                                                        John McLaughlin
Raita 1



     E  E  E  E  E     E  E  E  E  E     E  E  E     E  E  E   
E||--------------3--|--------------2--|--------0--|--------0--|
B||--------0--------|--------0--------|-----------|-----------|
G||-----5-----5-----|-----2-----2-----|-----2-----|-----0-----|
D||--2--------------|--0--------------|-----------|-----------|
A||-----------------|-----------------|--4--------|--3--------|
E||-----------------|-----------------|-----------|-----------|


  E  E  E  E  E     E  E  E  E  E     E  E  E     E  E  E     E  E  E   
-----------------|--------------0--|-----------|-----------|-----------|
--------------3--|-----------------|--------3--|--------1--|--------0--|
--------0--------|--------0--------|-----------|-----------|-----------|
-----4-----4-----|-----4-----4-----|-----4-----|-----2-----|-----2-----|
--2--------------|--3--------------|--2--------|--0--------|-----------|
-----------------|-----------------|-----------|-----------|--4--------|


  E  E  E     E  E  E  E  E  E  E     E  E  E  E  E     E  E  E   
-----------|--------------------0--|-----------------|-----------|
--------0--|--------------0--------|--------------0--|--------2--|
-----------|--------3--------3-----|-----------------|-----------|
-----2-----|-----2-----2-----------|-----------2-----|-----2-----|
-----------|-----------------------|-----------------|--0--------|
--3--------|--2--------------------|--2--3--4--------|-----------|


  E  E  E  E  E     E  E  E  E  E     E  E  E  E     E  E  E   
-----------------|--------------0--|-----------0--|--------2--|
--------------3--|-----------------|--------------|-----------|
-----------------|--------0--------|--------2-----|-----2-----|
-----------4-----|-----4-----4-----|--------------|--0--------|
--0--1--2--------|--3--------------|--3--4--------|-----------|
-----------------|-----------------|--------------|-----------|


  E  E  E  E  E     E  E  E  E  E     E  E  E     E  E  E  E  E   
--------------3--|--------------5--|--------0--|-----------------|
-----1-----1-----|--------0--------|-----------|--------------3--|
--------4--------|-----5-----5-----|-----0-----|--------0--------|
--2--------------|--3--------------|-----------|-----4-----4-----|
-----------------|-----------------|--3--------|--2--------------|
-----------------|-----------------|-----------|-----------------|


  E  E  E  E  E     E  E  E  Q       W                   H        Q.     E   
-----------------|----------------|-------------------|--------------------|
-----------------|-----------0----|--L----------------|--------------------|
--------------2--|----------------|-------------------|--------------------|
--------0--------|--------0-------|-------------------|-----------------9--|
-----4-----4-----|----------------|-------------------|--------------------|
--2--------------|--2--3----------|-------------------|--------------------|


  E  E  E  E  E   E     Q    Q    Q       E   S S E   Q    E   
---------------------|--7----7----7----|--7--10-8-7-----------|
-----------7--8--10--|-----------------|-------------10----8--|
--9--8--9------------|-----------------|----------------------|
---------------------|-----------------|----------------------|
---------------------|-----------------|----------------------|
---------------------|-----------------|----------------------|


   E  Q     Q     E      E   E   E   E   E   E     E  E  E  E  E   E   
---------------------|------12------------------|---------------------|
---------------------|--13------12--13--12------|-----8--7------------|
--10--L----10----12--|----------------------12--|--9--------8---------|
---------------------|--------------------------|--------------9--10--|
---------------------|--------------------------|---------------------|
---------------------|--------------------------|---------------------|


  E   E  E   E  E  E     H.             
----------------------|---------------||
----------------------|---------------||
----------------------|---------------||
--9-------------------|---------------||
-----10--7------------|---------------||
------------10--9--8--|--7------------||




Duration Legend
---------------
W - whole
H - half
Q - quarter
E - 8th
S - 16th
T - 32nd
X - 64th
. - note dotted
|-n-|  - n-tuplets


Tablature Legend
----------------
L - tied note
x - dead note
g - grace note
(n) - ghost note
> - accentuded note
NH - natural harmonic
AH - artificial harmonic
TH - tapped harmonic
SH - semi harmonic
PH - pitch harmonic
h - hammer on
p - pull off
b - bend
br - bendRelease
pb - preBend
pbr - preBendRelease
brb - bendReleaseBend
\n/ - tremolo bar dip
\n - tremolo bar dive
-/n - tremolo bar Release up
/n\ - tremolo bar inverted dip
/n - tremolo bar return
-\n - tremolo bar Release down
S - shift slide
s - legato slide
/ -  slide into from below or out of upwards
\ -  slide into from above or out of downwards
~ - vibrato
W - wide vibrato
tr - trill
TP - tremolo picking
T - tapping
S - slap
P - pop
< - fade in
^ - brush up
v - brush down
comments
print report bad tab
I want to post or [tab]
guest
You may want to rate the tab now too:
select rating
Please do not post tabs as comments. Select "correction" instead!