Oops, an error
Loading. Please wait.

Aint Even Done With The Night Bass Tab

version 1
version 1

Whole song

Interactive

1,517 views 3 this week
no commentswrite comment
1 2 3 4 5
please rate
add to favorites
launch autoscroll
font size
0
reset
guitar tuner
Autoscroll
slow
fast
+/-
esc
set tempo
stop
Help us to improve Ultimate-Guitar.com Take our survey!
×
Author
-----------------------------------------------------------------------------
              AIN'T EVEN DONE WITH THE NIGHT - John Mellencamp
-----------------------------------------------------------------------------

Tabbed by: Matt Broback
E-mail: 37hambone@gmail.com

Tuning: E A D G

s = sixteenth note

INTRO   x12
|----------|
|:--------:|
|:--------:|
|----------|

VERSE                               x3
|---------|--------|--------|---------|--------|--------|--------|---------|
|:--------|--------|2--22---|2-2-22--:|--------|--------|2--22---|2-2-22/24|
|:2---22--|2---22-2|--2----2|-2-2----:|2---22--|2---22-2|--2----2|-2-2-----|
|----2---2|---2----|--------|-------2-|---2---2|---2----|--------|---------|

PRECHORUS
|--------|--------|--------|--------|--------|--------|--------|--------|
|6-----6-|2-----22|4-------|4------4|66----66|2-----22|4-------|44------|
|---666--|---22---|---44-6-|---44-6-|---66---|---22---|---44-66|---44-64|
|--------|--------|--------|--------|--------|--------|--------|--------|

CHORUS 1 ss        ss        ss        ss         ss        ss        ss
|----------|---------|---------|----------|---------|---------|---------|--------|
|:---------|---------|2--2-----|4--4-----:|---------|---------|2--2-----|4--44-4-|
|:2--2-----|-------24|-------46|---------:|2--2-----|-------24|-------46|--------|
|--------02|4--4-----|---------|-------24-|-------02|4--4-----|---------|--------|

VERSE                               x3
|---------|--------|--------|---------|--------|--------|--------|---------|
|:--------|--------|2--22---|2-2-22--:|--------|--------|2--22---|2-2-22/24|
|:2---22--|2---22-2|--2----2|-2-2----:|2---22--|2---22-2|--2----2|-2-2-----|
|----2---2|---2----|--------|-------2-|---2---2|---2----|--------|---------|

PRECHORUS
|--------|--------|--------|--------|--------|--------|--------|--------|
|6-----6-|2-----22|4-------|4------4|6-----66|2-----22|4-------|44------|
|---666--|---22---|---44-6-|---44-6-|---66---|---22---|---44-6-|---44-64|
|--------|--------|--------|--------|--------|--------|--------|--------|

CHORUS 2 ss        ss        ss        ss         ss        ss        ss
|----------|---------|---------|----------|---------|---------|---------|--------|
|:---------|---------|2--2-----|4--4-----:|---------|---------|2--2-----|4--4---4|
|:2--2-----|-------24|-------46|---------:|2--2-----|-------24|-------46|------6-|
|--------02|4--4-----|---------|-------24-|-------02|4--4-----|---------|--------|

SOLO
|--------|--------|--------|--------|--------|--------|--------|.-.-.-.---|
|6-----6-|4-----4-|2-------|2-------|6-----6-|2-----22|4-----4-|4-4-4-4---|
|---66---|---44---|---22-44|---22-46|---66---|---22---|---44---|--------64|
|--------|--------|--------|--------|--------|--------|--------|----------|

OUTRO   ss        ss        ss        ss        ss        ss        ss        ss
|---------|---------|---------|---------|---------|---------|---------|---------|
|.--------|---------|2--2-----|4--4-----|---------|---------|2--2-----|4--4-----|
|2--2-----|-------24|-------46|---------|2--2-----|-------24|-------46|---------|
|-------02|4--4-----|---------|-------24|-------02|4--4-----|---------|-------24|

        ss        ss        ss 
|---------|---------|---------|--------|---------|--------|--------|---------|
|---------|---------|2--2-----|4--4----|:--------|--------|2--22---|2-2-22--:|
|2--2-----|-------24|-------46|------64|:2---22--|2---22-2|--2----2|-2-2----:|
|-------02|4--4-----|---------|--------|----2---2|---2----|--------|-------2-|

|---------|--------|--------|---------|---------|--------|--------|---------|
|:--------|--------|2--22---|2-2-2---:|:--------|--------|2--22---|2-2-22--:|
|:2---22--|2---22-2|--2----2|-2-2----:|:2---22--|2---22-2|--2----2|-2-2----:|
|----2---2|---2----|--------|-----0-2-|----2---2|---2----|--------|-------2-|

|--------|--------|--------|--------|--------|--------|--------|--------|
|--------|--------|2--22---|2-2-2---|--------|--------|2--22---|2-2-22--|
|2---22--|2---22-2|--2----2|-2-2----|2---22--|2---22-2|--2----2|-2-2----|
|---2---2|---2----|--------|-----0-2|---2---2|---2----|--------|--------|
Suggest correction
Give kudos to tab author, rate the tab!
1 2 3 4 5
comments
print report bad tab
guest
You may want to rate the tab now too:
select rating
Please do not post tabs as comments. Select "correction" instead!