Oops, an error
Loading. Please wait.

Authority Song Bass Tab

11,054 views 12 this week
no commentswrite comment
1 2 3 4 5
2 more votes to show rating
add to favorites
launch autoscroll
font size
0
reset
guitar tuner
Autoscroll
slow
fast
+/-
esc
set tempo
stop
Help us to improve Ultimate-Guitar.com Take our survey!
×
Author
---------------------------------------------------------------------------
			   Authority Song - John Mellencamp
---------------------------------------------------------------------------

Tabbed By : James Ryan
http://world-according-to-jim.blogspot.com/

Tuning: Standard

INTRO
G|-------------------------------------------------------|
D|---4--4--4--------4---4--4---------4----4--4-----------|
A|-------------5---------------5-----------------5-------|
E|-------------------------------------------------------|

VERSES (D - G - A)
(mix and repeat the following)

G|----------------------------------------|
D|--------4-------------------------------|
A|--5--5-------5---------------2----0-----|
E|-------------------0----3---------------|

G|----------------------------------------|
D|--------4-------------------------------|
A|--5--5-------5---------------2----0--2--|
E|-------------------0----3---------------|

G|----------------------------------------|
D|-----3-----4----------------------------|
A|--5-----5-----5--------------2----0-----|
E|-------------------0----3---------------|

| /  slide up
| \  slide down
| h  hammer-on
| p  pull-off
| ~  vibrato
| +  harmonic
| x  Mute note
===========================================================================
Suggest correction
Give kudos to tab author, rate the tab!
1 2 3 4 5
comments
print report bad tab
guest
You may want to rate the tab now too:
select rating
Wanna post a correction for this tab? Suggest correction