Oops, an error
Loading. Please wait.

Rock In The Usa Bass Tab

version 1
version 1

Whole song

Interactive

5,367 views 6 this week
no commentswrite comment
1 2 3 4 5
please rate
add to favorites
launch autoscroll
font size
0
reset
guitar tuner
Tab Pro tools
  • play this tab
  • loop segment
  • change instrument
  • show fretboard
  • metronome
×
Best way to learn
"Rock In The Usa"
Autoscroll
slow
fast
+/-
esc
set tempo
stop
Contributor
------------------------------------------------------------------------------
                   R.O.C.K. In The U.S.A. – John Mellencamp
------------------------------------------------------------------------------
Tabbed By: 0GibsonLesPaul0
Email: -----

Tuning: Standard
______________________________________________________________________________

INTRO | | 1X
                                                                             2X
G|-----------------------------------|---------------------------------------|
D|-----------------------------------|o-------------------------------------o|
A|-----------------------------------|o-------------------------------------o|
E|-0-0-0-0-0-0-0-0-0-0-0-0-0-0-0-0---|---0—-5—-10—-5--0—-5—-10--10--5--------|


VERSE | 1X

G|---------------------------------------------------------------------------|
D|---------------------------------------------------------------------------|
A|---------------------------------------------------------------------------|
E|-0—-5—-10—-5--0—-5—-10--10—5--0—-5—-10—-5--0—-5—-10--10--5-----------------|


CHORUS | 1X

G|---------------------------------------------------------------------------|
D|---------------------------------------------------------------------------|
A|---------------------------------------------------------------------------|
E|-0—-5—-10—-5--0—-5—-10--10—5--0—-5—-10—-5--0—-5—-10--10--5—7-7-7-7-7-7-7-7-|


PRE – VERSE | 1X

G|---------------------------------------------------------------------------|
D|---------------------------------------------------------------------------|
A|---------------------------------------------------------------------------|
E|-0-0-0-0-0-0-0-0-0-0-0-0-0-0-0-0-0-0-0-0-0-0-0-0-0-0-0-0-0-0-0-0-----------|


VERSE | 1X

G|---------------------------------------------------------------------------|
D|---------------------------------------------------------------------------|
A|---------------------------------------------------------------------------|
E|-0—-5—-10—-5--0—-5—-10--10—5--0—-5—-10—-5--0—-5—-10--10--5-7-7-7-7-7-7-7-7-|


PRE – SOLO | 1X

G|---------------------------------------------------------------------------|
D|---------------------------------------------------------------------------|
A|---------------------------------------------------------------------------|
E|--0----5----10--------0----5----10-----------------------------------------|


SOLO (guitar) | 1X

G|---------------------------------------------------------------------------|
D|---------------------------------------------------------------------------|
A|---------------------------------------------------------------------------|
E|-0—-5—-10—-5--0—-5—-10--10—5--0—-5—-10—-5--0—-5—-10--10--5—----------------|
POST – SOLO | 1X

G|---------------------------------------------------------------------------|
D|---------------------------------------------------------------------------|
A|---------------5----------------5----------------5-------------------------|
E|-0-0-0-0-0-4-5---0-0-0-0-0-4-5---0-0-0-0-0-4-5-----------------------------|


VERSE | 2X

G|---------------------------------------------------------------------------|
D|---------------------------------------------------------------------------|
A|---------------5----------------5--------------5---------------5-----------|
E|-0-0-0-0-0-4-5---0-0-0-0-0-4-5---0-0-0-0-0-4-5---0-0-0-0-0-4-5-------------|


OUTRO
                                                  repeat and fade out
G|----------------|----------------------------------------------------------|
D|----------------|o--------------------------------------------------------o|
A|----------------|o--------------------------------------------------------o|
E|-7-7-7-7-7-7-7-7|-0—-5—-10—-5--0—-5—-10--10—5--0—-5—-10—-5--0—-5—-10--10-5-|


comments
We did not receive enough feedback on this tab! Please rate:
print report bad tab
1 2 3 4 5
I want to post or [tab]
guest
You may want to rate the tab now too:
select rating
Please do not post tabs as comments. Select "correction" instead!