Oops, an error
Loading. Please wait.

Small Town Bass Tab

version 1
version 1

Whole song

Interactive

6,873 views 12 this week
no commentswrite comment
1 2 3 4 5
accurate
x 2
add to favorites
launch autoscroll
font size
0
reset
guitar tuner
Tab Pro tools
  • play this tab
  • loop segment
  • change instrument
  • show fretboard
  • metronome
Autoscroll
slow
fast
+/-
esc
set tempo
stop
Contributor
-------------------------------------------------------------------------------
			 Small Town - John Mellencamp
-------------------------------------------------------------------------------

Tabbed By : James Ryan
http://world-according-to-jim.blogspot.com/
Tuning: Standard

verse
G|---------------------------------------|
D|---------------------------------------|
A|-------9-9--7--7-7-----7--9------------|
E|--7-7---------------9------------------|x3

G|---------------------------------------|
D|---------------------------------------|
A|----------------9--9--9--9--9----------|
E|-9--9--9--9--9-------------------------|x1

repeat

CHORUS
G|---------------------------------------|
D|---------------------------------------|
A|-7-7-------7-7------9-9----------------|
E|------7-7------7-7---------------------|

BRIDGE
G|------------------------------------------------------------------------|
D|------------------------------------------------------------------------|
A|-----------------------7------------------------------------9---9-9-9-9-|
E|-4-4-4-4-4-4-4---7--7-----7---4-4-4-4-4-4-4---7--7--9--11---------------|

G|--------------------------------------------------------------------------------|
D|--------------------------------------------------------------------------------|
A|-----------------------7-------------------9---9-9-9-9--------------9---9-9-9-9-|
E|-4-4-4-4-4-4-4---7--7-----7---7--7--9--11---------------7--7--9--11-------------|
comments
We did not receive enough feedback on this tab! Please rate:
print report bad tab
1 2 3 4 5
I want to post or [tab]
guest
You may want to rate the tab now too:
select rating
Please do not post tabs as comments. Select "correction" instead!