Oops, an error
Loading. Please wait.

In The House In A Heartbeat tab

version 1
version 1
80,081 views 90 this week
5 commentsread comments
1 2 3 4 5
x 23
add to favorites
×
Save as Personal and add changes to this tab that will be seen only by you. Learn more ›
×
You can save this tab as Personal to edit and correct it or add notes. All changes will be seen only by you. Learn more »
launch autoscroll
font size
0
reset
how to read this tab
guitar tuner
edit
Autoscroll
slow
fast
+/-
esc
set tempo
stop
Author
Difficulty
In The House-In A Heartbeat
John Murphy
28 Days Later
Standard EADGBe Tuning


UPDATE*- April 30th, 2011:
Retabbed the entire song.


(Gtr 1= Acoustic, Gtr 2= Electric)


-Intro-
Piano
e|-----17------17------17------17------17------17------17------17-|
B|-15------15------15------15------15------15------15------15-----|
G|----------------------------------------------------------------|
D|----------------------------------------------------------------|
A|----------------------------------------------------------------|
E|----------------------------------------------------------------|
Bass
G|----------------------------------------------------------------|
D|----------------------------------------------------------------|
A|----------------------------------------------------------------|
E|---------------------------------/6~~~~~~~~~~~~~~~~~~~~~~~~~~~~~|
                                    ^

Piano
e|-----17------17------17------17------17------17------17------17-|
B|-15------15------15------15------15------15------15------15-----|
G|----------------------------------------------------------------|
D|----------------------------------------------------------------|
A|----------------------------------------------------------------|
E|----------------------------------------------------------------|
Bass
G|------------------------------------------------|
D|------------------------------------------------|
A|------------------------------------------------|
E|-10~-10~-10-10-10-10-10~-10~-10~-10-10-10-10-10~|
   ^   ^   ^  v  ^  v  ^   ^   ^   ^  v  ^  v  ^
G|-----------------------------------|
D|-----------------------------------|
A|-----------------------------------|
E|-6~-6~-6-6-6-6-6~-6~-6~-6-6-6-6-6~-|
   ^  ^  ^ v ^ v ^  ^  ^  ^ v ^ v ^


Gtr 1
   F               E
e|-1~-1~-1-1-1-1-1-0~-0--0--0--0--0-|
B|-1~-1~-1-1-1-1-1-0~-0--0--0--0--0-|
G|-2~-2~-2-2-2-2-2-1~-1--1--1--1--1-|
D|-3~-3~-3-3-3-3-3-2~-2--2--2--2--2-|
A|-3~-3~-3-3-3-3-3-2~-2--2--2--2--2-|
E|-1~-1~-1-1-1-1-1-0~-0--0--0--0--0-|
   ^  ^  ^ v ^ v ^ v  ^  ^  ^  ^  ^
Bass
G|------------------------------------------|
D|------------------------------------------|
A|------------------------------------------|
E|-13~-13~-13-13-13-13-13-12-12-12-12-12-12-|
   ^   ^   ^  v  ^  v  ^  v  ^  ^  ^  ^  ^
Piano
e|-----17------17------17---------|
B|-15------15------15-------------|
G|--------------------------------|
D|--------------------------------|
A|--------------------------------|
E|--------------------------------|


Gtr 1
   D                                 Bb
e|-2~~~~~~~~~~~~~~~~~~~~~~~~~~~~~~~~---------------------------------|
B|-3~~~~~~~~~~~~~~~~~~~~~~~~~~~~~~~~-3~~~~~~~~~~~~~~~~~~~~~~~~~~~~~~~|
G|-2~~~~~~~~~~~~~~~~~~~~~~~~~~~~~~~~-3~~~~~~~~~~~~~~~~~~~~~~~~~~~~~~~|
D|-0~~~~~~~~~~~~~~~~~~~~~~~~~~~~~~~~-3~~~~~~~~~~~~~~~~~~~~~~~~~~~~~~~|
A|-----------------------------------1~~~~~~~~~~~~~~~~~~~~~~~~~~~~~~~|
E|-------------------------------------------------------------------|
Gtr 2
e|-------------------------------------------------------------------|
B|-------------------------------------------------------------------|
G|-6---6---7---7---9---9---10---10---6---6---7---7---9---9---10---10-|
D|---0---0---0---0---0---0----0----0---0---0---0---0---0---0----0----|
A|-------------------------------------------------------------------|
E|-------------------------------------------------------------------|
Bass
G|-------------------------------------------------------------------|
D|-------------------------------------------------------------------|
A|-------------------------------------------------------------------|
E|-10~~~~~~~~~~~~~~~~~~-10-10-10-10~-6~-6~-6-6-6-6-6~-6~-6~-6-6-6-6~-|
Piano
e|-----17------17------17------17------17------17------17------17-|
B|-15------15------15------15------15------15------15------15-----|
G|----------------------------------------------------------------|
D|----------------------------------------------------------------|
A|----------------------------------------------------------------|
E|----------------------------------------------------------------|


Gtr 1
   E                                 F
e|-0~~~~~~~~~~~~~~~~~~~~~~~~~~~~~~~~-1~~~~~~~~~~~~~~~~~~~~~~~~~~~~~~~|
B|-0~~~~~~~~~~~~~~~~~~~~~~~~~~~~~~~~-1~~~~~~~~~~~~~~~~~~~~~~~~~~~~~~~|
G|-1~~~~~~~~~~~~~~~~~~~~~~~~~~~~~~~~-2~~~~~~~~~~~~~~~~~~~~~~~~~~~~~~~|
D|-2~~~~~~~~~~~~~~~~~~~~~~~~~~~~~~~~-3~~~~~~~~~~~~~~~~~~~~~~~~~~~~~~~|
A|-2~~~~~~~~~~~~~~~~~~~~~~~~~~~~~~~~-3~~~~~~~~~~~~~~~~~~~~~~~~~~~~~~~|
E|-0~~~~~~~~~~~~~~~~~~~~~~~~~~~~~~~~-1~~~~~~~~~~~~~~~~~~~~~~~~~~~~~~~|
Gtr 2
e|-------------------------------------------------------------------|
B|-------------------------------------------------------------------|
G|-6---6---7---7---9---9---10---10---6---6---7---7---9---9---10---10-|
D|---0---0---0---0---0---0----0----0---0---0---0---0---0---0----0----|
A|-------------------------------------------------------------------|
E|-------------------------------------------------------------------|
Bass
G|-----------------------------------------------------------------------------------------|
D|-----------------------------------------------------------------------------------------|
A|-----------------------------------------------------------------------------------------|
E|-12~-12~-12-12-12-12-12~-12~-12~-12-12-12-12-13~-13~-13-13-13-13-13~-13~-13~-13-13-13-13-|
Piano
e|-----17------17------17------17------17------17------17------17-|
B|-15------15------15------15------15------15------15------15-----|
G|----------------------------------------------------------------|
D|----------------------------------------------------------------|
A|----------------------------------------------------------------|
E|----------------------------------------------------------------|


Gtr 1
   D                                Bb
e|-2~-2~-2-2-2-2-2~-2~-2~-2-2-2-2-2----------------------------------|
B|-3~-3~-3-3-3-3-3~-3~-3~-3-3-3-3-3-3~-3~-3-3-3-3-3~-3~-3~-3-3-3-3-3-|
G|-2~-2~-2-2-2-2-2~-2~-2~-2-2-2-2-2-3~-3~-3-3-3-3-3~-3~-3~-3-3-3-3-3-|
D|-0~-0~-0-0-0-0-0~-0~-0~-0-0-0-0-0-3~-3~-3-3-3-3-3~-3~-3~-3-3-3-3-3-|
A|----------------------------------1~-1~-1-1-1-1-1~-1~-1~-1-1-1-1-1-|
E|-------------------------------------------------------------------|
   ^  ^  ^ v ^ v ^
Gtr 2
e|---------------------------------------------------------------------|
B|---------------------------------------------------------------------|
G|-6---6---7---7---9---9---10---10---6---6---7---7---9---9---10---10---|
D|---0---0---0---0---0---0----0----0---0---0---0---0---0---0----0----0-|
A|---------------------------------------------------------------------|
E|---------------------------------------------------------------------|
Bass
G|-------------------------------------------------------------------------------|
D|-------------------------------------------------------------------------------|
A|-------------------------------------------------------------------------------|
E|-10~-10~-10-10-10-10-10~-10~-10~-10-10-10-10-6--6~-6~-6-6-6-6-6~-6~-6~-6-6-6-6-|
Piano
e|-----17------17------17------17------17------17------17------17-|
B|-15------15------15------15------15------15------15------15-----|
G|----------------------------------------------------------------|
D|----------------------------------------------------------------|
A|----------------------------------------------------------------|
E|----------------------------------------------------------------|


Gtr 1
   E                                 F
e|-0~-0~-0-0-0-0-0~-0~-0~-0-0-0-0-0-1~-1~-1-1-1-1-1~-1~-1~-1-1-1-1-1-|
B|-0~-0~-0-0-0-0-0~-0~-0~-0-0-0-0-0-1~-1~-1-1-1-1-1~-1~-1~-1-1-1-1-1-|
G|-1~-1~-1-1-1-1-1~-1~-1~-1-1-1-1-1-2~-2~-2-2-2-2-2~-2~-2~-2-2-2-2-2-|
D|-2~-2~-2-2-2-2-2~-2~-2~-2-2-2-2-2-3~-3~-3-3-3-3-3~-3~-3~-3-3-3-3-3-|
A|-2~-2~-2-2-2-2-2~-2~-2~-2-2-2-2-2-3~-3~-3-3-3-3-3~-3~-3~-3-3-3-3-3-|
E|-0~-0~-0-0-0-0-0~-0~-0~-0-0-0-0-0-1~-1~-1-1-1-1-1~-1~-1~-1-1-1-1-1-|
Gtr 2
e|---------------------------------------------------------------------|
B|---------------------------------------------------------------------|
G|-6---6---7---7---9---9---10---10---6---6---7---7---9---9---10---10---|
D|---0---0---0---0---0---0----0----0---0---0---0---0---0---0----0----0-|
A|---------------------------------------------------------------------|
E|---------------------------------------------------------------------|
Bass
G|-----------------------------------------------------------------------------------------------|
D|-----------------------------------------------------------------------------------------------|
A|-----------------------------------------------------------------------------------------------|
E|-12~-12~-12-12-12-12-12~-12~-12~-12-12-12-12-12-13~-13~-13-13-13-13-13~-13~-13~-13-13-13-13-13-|
Piano
e|-----17------17------17------17------17------17------17------17-|
B|-15------15------15------15------15------15------15------15-----|
G|----------------------------------------------------------------|
D|----------------------------------------------------------------|
A|----------------------------------------------------------------|
E|----------------------------------------------------------------|


Gtr 1
     D                                        Bb
e||--2-2~-2-2~-2-2-2-2-2--2-2~-2-2~-2-2-2-2-2-------------------------------------------|
B||o-3-3~-3-3~-3-3-3-3-3--3-3~-3-3~-3-3-3-3-3--3-3~-3-3~-3-3-3-3-3--3-3~-3-3~-3-3-3-3-3-|
G||--2-2~-2-2~-2-2-2-2-2--2-2~-2-2~-2-2-2-2-2--3-3~-3-3~-3-3-3-3-3--3-3~-3-3~-3-3-3-3-3-|
D||--0-0~-0-0~-0-0-0-0-0--0-0~-0-0~-0-0-0-0-0--3-3~-3-3~-3-3-3-3-3--3-3~-3-3~-3-3-3-3-3-|
A||o-------------------------------------------1-1~-1-1~-1-1-1-1-1--1-1~-1-1~-1-1-1-1-1-|
E||-------------------------------------------------------------------------------------|
     ^ v  ^ v  ^ v ^ v ^
Gtr 2
e||----------------------------------------------------------------------|
B||o---------------------------------------------------------------------|
G||--6---6---7---7---9---9---10---10---6---6---7---7---9---9---10---10---|
D||----0---0---0---0---0---0----0----0---0---0---0---0---0---0----0----0-|
A||o---------------------------------------------------------------------|
E||----------------------------------------------------------------------|
Bass
G||----------------------------------------------------------------------------|
D||o---------------------------------------------------------------------------|
A||o---------------------------------------------------------------------------|
E||--1010~-1010~-1010101010-1010~-1010~-1010101010-66~-66~-66666-66~-66~-66666-|
Piano
e||------17------17------17------17------17------17------17------17-|
B||o-15------15------15------15------15------15------15------15-----|
G||-----------------------------------------------------------------|
D||-----------------------------------------------------------------|
A||o----------------------------------------------------------------|
E||-----------------------------------------------------------------|


Gtr 1
   E                                         F
e|-0-0~-0-0~-0-0-0-0-0--0-0~-0-0~-0-0-0-0-0--1-1~-1-1~-1-1-1-1-1--1-1~-1-1~-1-1-1-1-1--||
B|-0-0~-0-0~-0-0-0-0-0--0-0~-0-0~-0-0-0-0-0--1-1~-1-1~-1-1-1-1-1--1-1~-1-1~-1-1-1-1-1-o||
G|-1-1~-1-1~-1-1-1-1-1--1-1~-1-1~-1-1-1-1-1--2-2~-2-2~-2-2-2-2-2--2-2~-2-2~-2-2-2-2-2--||
D|-2-2~-2-2~-2-2-2-2-2--2-2~-2-2~-2-2-2-2-2--3-3~-3-3~-3-3-3-3-3--3-3~-3-3~-3-3-3-3-3--||
A|-2-2~-2-2~-2-2-2-2-2--2-2~-2-2~-2-2-2-2-2--3-3~-3-3~-3-3-3-3-3--3-3~-3-3~-3-3-3-3-3-o||
E|-0-0~-0-0~-0-0-0-0-0--0-0~-0-0~-0-0-0-0-0--1-1~-1-1~-1-1-1-1-1--1-1~-1-1~-1-1-1-1-1--||
Gtr 2
e|--------------------------------------------------------------------||
B|-------------------------------------------------------------------o||
G|-6---6---7---7---9---9---10---10---6---6---7---7---9---9---10---10--||
D|---0---0---0---0---0---0----0----0---0---0---0---0---0---0----0-----||
A|-------------------------------------------------------------------o||
E|--------------------------------------------------------------------||
Bass
G|---------------------------------------------------------------------------------------------||
D|--------------------------------------------------------------------------------------------o||
A|--------------------------------------------------------------------------------------------o||
E|-1212~-1212~-1212121212-1212~-1212~-1212121212-1313~-1313~-1313131313-1313~-1313~-1313131313-||
Piano
e|-----17------17------17------17------17------17------17------17--||
B|-15------15------15------15------15------15------15------15-----o||
G|-----------------------------------------------------------------||
D|-----------------------------------------------------------------||
A|----------------------------------------------------------------o||
E|-----------------------------------------------------------------||


Gtr 1- Dist.
e|-9-9-9-9-9-9-10-10-10-10-10-10-12-12-12-12-12-12-13-13-13-13-13-13-|
B|-x-x-x-x-x-x-x--x--x--x--x--x--x--x--x--x--x--x--x--x--x--x--x--x--|
G|-6-6-6-6-6-6-7--7--7--7--7--7--9--9--9--9--9--9--10-10-10-10-10-10-|
D|-------------------------------------------------------------------|
A|-------------------------------------------------------------------|
E|-------------------------------------------------------------------|
Gtr 2- Dist.
e|-------------------------------------------------------------------|
B|-------------------------------------------------------------------|
G|-------------------------------------------------------------------|
D|-7~~~~~~~-7~~~~~~~-7~~~~~~~-7~~~~~~-7~~~~~~-7~~~~~~-7~~~~~~-7~~~~~~|
A|-5~~~~~~~-5~~~~~~~-5~~~~~~~-5~~~~~~-5~~~~~~-5~~~~~~-5~~~~~~-5~~~~~~|
E|-------------------------------------------------------------------|


Gtr 1
e|-9-9-9-9-9-9-10-10-10-10-10-10-12-12-12-12-12-12-13-13-13-13-13-13-|
B|-x-x-x-x-x-x-x--x--x--x--x--x--x--x--x--x--x--x--x--x--x--x--x--x--|
G|-6-6-6-6-6-6-7--7--7--7--7--7--9--9--9--9--9--9--10-10-10-10-10-10-|
D|-------------------------------------------------------------------|
A|-------------------------------------------------------------------|
E|-------------------------------------------------------------------|
Gtr 2
e|-------------------------------------------------------------------|
B|-------------------------------------------------------------------|
G|-------------------------------------------------------------------|
D|-3~~~~~~~-3~~~~~~~-3~~~~~~~-3~~~~~~-3~~~~~~-3~~~~~~-3~~~~~~-3~~~~~~|
A|-1~~~~~~~-1~~~~~~~-1~~~~~~~-1~~~~~~-1~~~~~~-1~~~~~~-1~~~~~~-1~~~~~~|
E|-------------------------------------------------------------------|


Gtr 1
e|-9-9-9-9-9-9-10-10-10-10-10-10-12-12-12-12-12-12-13-13-13-13-13-13-|
B|-x-x-x-x-x-x-x--x--x--x--x--x--x--x--x--x--x--x--x--x--x--x--x--x--|
G|-6-6-6-6-6-6-7--7--7--7--7--7--9--9--9--9--9--9--10-10-10-10-10-10-|
D|-------------------------------------------------------------------|
A|-------------------------------------------------------------------|
E|-------------------------------------------------------------------|
Gtr 2
e|-------------------------------------------------------------------|
B|-------------------------------------------------------------------|
G|-------------------------------------------------------------------|
D|-------------------------------------------------------------------|
A|-2~~~~~~~-2~~~~~~~-2~~~~~~~-2~~~~~~-2~~~~~~-2~~~~~~-2~~~~~~-2~~~~~~|
E|-0~~~~~~~-0~~~~~~~-0~~~~~~~-0~~~~~~-0~~~~~~-0~~~~~~-0~~~~~~-0~~~~~~|


Gtr 1
e|-9-9-9-9-9-9-10-10-10-10-10-10-12-12-12-12-12-12-13-13-13-13-13-13-|
B|-x-x-x-x-x-x-x--x--x--x--x--x--x--x--x--x--x--x--x--x--x--x--x--x--|
G|-6-6-6-6-6-6-7--7--7--7--7--7--9--9--9--9--9--9--10-10-10-10-10-10-|
D|-------------------------------------------------------------------|
A|-------------------------------------------------------------------|
E|-------------------------------------------------------------------|
Gtr 2
e|-------------------------------------------------------------------|
B|-------------------------------------------------------------------|
G|-------------------------------------------------------------------|
D|------------------------------------3~~~~~~-3~~~~~~-3~~~~~~-3~~~~~~|
A|-3~~~~~~~-3~~~~~~~-3~~~~~~~-3~~~~~~-3~~~~~~-3~~~~~~-3~~~~~~-3~~~~~~|
E|-1~~~~~~~-1~~~~~~~-1~~~~~~~-1~~~~~~-1~~~~~~-1~~~~~~-1~~~~~~-1~~~~~~|


Gtr 1
e|-9~~-9~~-10~~-10~~-12~~-12~~-13~~-13~~-9~~-9~~-10~~-10~~-12~~-12~~-13~~-13~~|
B|-x---x----x----x----x----x---x----x----x---x----x----x----x----x---x----x---|
G|-6~~-6~~--7~~--7~~--9~~--9~~-10~~-10~~-6~~-6~~--7~~--7~~--9~~--9~~-10~~-10~~|
D|----------------------------------------------------------------------------|
A|----------------------------------------------------------------------------|
E|----------------------------------------------------------------------------|
Gtr 2
e|----------------------------------------------------------------------------|
B|----------------------------------------------------------------------------|
G|-7~~-7~~~-7~~~-7~~~-7~~~-7~~~-7~~~-7~~-3~~-3~~~-3~~~-3~~~-3~~~-3~~~-3~~~-3~~|
D|-7~~-7~~~-7~~~-7~~~-7~~~-7~~~-7~~~-7~~-3~~-3~~~-3~~~-3~~~-3~~~-3~~~-3~~~-3~~|
A|-5~~-5~~~-5~~~-5~~~-5~~~-5~~~-5~~~-5~~-1~~-1~~~-1~~~-1~~~-1~~~-1~~~-1~~~-1~~|
E|----------------------------------------------------------------------------|


Gtr 1
e|-9~~-9~~-10~~-10~~-12~~-12~~-13~~-13~~-9~~-9~~-10~~-10~~-12~~-12~~-13~~-13~~|
B|-x---x----x----x----x----x---x----x----x---x----x----x----x----x---x----x---|
G|-6~~-6~~--7~~--7~~--9~~--9~~-10~~-10~~-6~~-6~~--7~~--7~~--9~~--9~~-10~~-10~~|
D|----------------------------------------------------------------------------|
A|----------------------------------------------------------------------------|
E|----------------------------------------------------------------------------|
Gtr 2
e|----------------------------------------------------------------------------|
B|----------------------------------------------------------------------------|
G|----------------------------------------------------------------------------|
D|-2~~-2~~~-2~~~-2~~~-2~~~-2~~~-2~~~-2~~-3~~-3~~~-3~~~-3~~~-3~~~-3~~~-3~~~-3~~|
A|-2~~-2~~~-2~~~-2~~~-2~~~-2~~~-2~~~-2~~-3~~-3~~~-3~~~-3~~~-3~~~-3~~~-3~~~-3~~|
E|-0~~-0~~~-0~~~-0~~~-0~~~-0~~~-0~~~-0~~-1~~-1~~~-1~~~-1~~~-1~~~-1~~~-1~~~-1~~|


Gtr 1
e|-9~~-9~~-10~~-10~~-12~~-12~~-13~~-13~~-9~~-9~~-10~~-10~~-12~~-12~~-13~~-13~~|
B|-x---x----x----x----x----x---x----x----x---x----x----x----x----x---x----x---|
G|-6~~-6~~--7~~--7~~--9~~--9~~-10~~-10~~-6~~-6~~--7~~--7~~--9~~--9~~-10~~-10~~|
D|----------------------------------------------------------------------------|
A|----------------------------------------------------------------------------|
E|----------------------------------------------------------------------------|
Gtr 2
e|----------------------------------------------------------------------------|
B|----------------------------------------------------------------------------|
G|-7~~-7~~~-7~~~-7~~~-7~~~-7~~~-7~~~-7~~-3~~-3~~~-3~~~-3~~~-3~~~-3~~~-3~~~-3~~|
D|-7~~-7~~~-7~~~-7~~~-7~~~-7~~~-7~~~-7~~-3~~-3~~~-3~~~-3~~~-3~~~-3~~~-3~~~-3~~|
A|-5~~-5~~~-5~~~-5~~~-5~~~-5~~~-5~~~-5~~-1~~-1~~~-1~~~-1~~~-1~~~-1~~~-1~~~-1~~|
E|----------------------------------------------------------------------------|


Gtr 1
e|-9~~-9~~-10~~-10~~-12~~-12~~-13~~-13~~-9~~-9~~-10~~-10~~-12~~-12~~-13~~-13-|
B|-x---x----x----x----x----x---x----x----x---x----x----x----x----x---x----x--|
G|-6~~-6~~--7~~--7~~--9~~--9~~-10~~-10~~-6~~-6~~--7~~--7~~--9~~--9~~-10~~-10-|
D|---------------------------------------------------------------------------|
A|---------------------------------------------------------------------------|
E|---------------------------------------------------------------------------|
Gtr 2
e|--------------------------------------------------------------------------|
B|--------------------------------------------------------------------------|
G|--------------------------------------------------------------------------|
D|-2~~-2~~~-2~~~-2~~~-2~~~-2~~~-2~~~-2~~-3~~-3~~~-3~~~-3~~~---------------3-|
A|-2~~-2~~~-2~~~-2~~~-2~~~-2~~~-2~~~-2~~-3~~-3~~~-3~~~-3~~~-3-3-3-3-3-3-3-3-|
E|-0~~-0~~~-0~~~-0~~~-0~~~-0~~~-0~~~-0~~-1~~-1~~~-1~~~-1~~~-1-1-1-1-1-1-1-1-|
                                                            - - - - - - -


Gtr 2- Clean
e||--9----9----11----11----9----9----11----11----7---7---7---7---9---9---8---8--||
B||o---10---10----10----10---10---10----10----10---9---9---9---9---9---9---9---o||
G||-----------------------------------------------------------------------------||
D||-----------------------------------------------------------------------------||
A||o---------------------------------------------------------------------------o||
E||-----------------------------------------------------------------------------||

            
            
Suggest correction
Creating personal tab
Creating personal tab
You can edit any tab online and save it as your Personal.

You can edit, replace or remove any tab part or add personal notes – all changes will be seen only by you.

Personal tabs can be accessed anytime from any device, even offline.
Learn more »
comments
print report bad tab
5 comments total. Showing first comments.
+1 reply
SnowTau 42 Jul 29, 2008 12:02 AM

I'm pretty sure the Bass, or Guitar 4 goes like this -

|-----|-----|------|------|
|-----|-----|------|------|
|-----|-----|------|------|
|-10--|--6--|--13--|--12--|

Then alternate to

|-----|-----|------|------|
|-----|-----|------|------|
|-----|-----|------|------|
|-10--|--6--|--13--|--15--|

Then back to the first one

0 reply
Lennac 10 Nov 28, 2008 10:25 PM

agreed ^^^

0 reply
Lennac 10 Nov 28, 2008 10:26 PM

*sigh* regarding the correction made... it was right.

guest
You may want to rate the tab now too:
select rating
Wanna post a correction for this tab? Suggest correction