Oops, an error
Loading. Please wait.

Kanadas Death Part 2 Tab

3,170 views 1 this week
3 commentsread comments
1 2 3 4 5
1 last vote to show rating
add to favorites
launch autoscroll
font size
0
reset
how to read this tab
guitar tuner
Autoscroll
slow
fast
+/-
esc
set tempo
stop
Help us to improve Ultimate-Guitar.com Take our survey!
×
Author
Okay...so this is (I think) the best song on the Sunshine album. If you don't buy it, go 
here http://www.youtube.com/watch?v=X4qb6YbCQk0 to hear the song....

So I don't have the whole song because most of it is on a keyboard and electronics, but 
is the guitar part


E -----------------------------------------------------------------|
B -----------------------------------------------------------------|
G -4-4-2-2-4-4-5-5-4-4-2-2-4-4-2-2-4-4-2-2-4-4-5-5-4-4-2-2-4-4-2-2-|
D -----------------------------------------------------------------|
A -----------------------------------------------------------------|
E -----------------------------------------------------------------|

E -----------------------------------------------------------------|
B -3-3-1-1-3-3-5-5-3-3-1-1-3-3-1-1-3-3-0-0-2-2-3-3-2-2-0-0---------|
G ---------------------------------------------------------3-3-2-2-|
D -----------------------------------------------------------------|
A -----------------------------------------------------------------|
E -----------------------------------------------------------------|

Repeat many many times...

Chords are....

Bm   -    G    -    D   -   A
Suggest correction
Give kudos to tab author, rate the tab!
1 2 3 4 5
comments
print report bad tab
3 comments total.
0 reply
cormac369 57 May 02, 2013 05:33 PM

E -----------------------------------------------------------------|
B -7-7-5-5-7-7-9-9-7-7-5-5-7-7-9-9-11-11-12-12-11-11-9-9-7-7-5-5---------|
G ---------------------------------------------------------3-3-2-2-|
D -----------------------------------------------------------------|
A -----------------------------------------------------------------|
E -----------------------------------------------------------------|

The first bit's right, but then for the second bit it does this little riff.

0 reply
cormac369 57 May 02, 2013 05:34 PM

Oops screwed that up. Ignore the 3-3-2-2- that I forgot to edit out.

0 reply
cormac369 57 May 02, 2013 05:37 PM

Ah, crap. I am an idiot. I didn't realise it was on the string above. Sorry man, I've just totally tried to corret you for a mistake that you didn't make. Soooorryyyyy. I'm just really tired.

guest
You may want to rate the tab now too:
select rating
Wanna post a correction for this tab? Suggest correction