Oops, an error
Loading. Please wait.

Bite Of The Mosquito tab

version 2
version 2

Whole song

Interactive

2,105 views 1 this week
4 commentsread comments
1 2 3 4 5
1 last vote to show rating
add to favorites
×
Save as Personal and add changes to this tab that will be seen only by you. Learn more ›
×
You can save this tab as Personal to edit and correct it or add notes. All changes will be seen only by you. Learn more »
launch autoscroll
font size
0
reset
how to read this tab
guitar tuner
edit
Autoscroll
slow
fast
+/-
esc
set tempo
stop
Author
Difficulty
Very Hard, Very Fast, Good Luck

|------------------------------------------------------------------------|
|------------------------------------------------------------------------|
|------------------------------------------------------------------------|
|------------------------------------------------7-8-9-10-13-12-11-10-11-|
|--------------------------------------8-9-10-11-------------------------|
|-1-2-3-4-5-6-7-8-11-10-9-8-9-10-11-12-----------------------------------|
PM......................................................................
|----------------------------------------------------------|--------------
|----------------------10-11-12-13-16-15-14-13-14-15-16-17-|o-16-15-14-13-
|----------10-11-12-13-------------------------------------|--------------
|-12-13-14-------------------------------------------------|--------------
|----------------------------------------------------------|o-------------
|----------------------------------------------------------|--------------
PM........
----------------------------------------||-------------------------|
--------------------------12-13-14-15--o||-16-13-14-15-16-15-14-13-|
--16-15-14-13-12-13-14-15---------------||-------------------------|
----------------------------------------||-------------------------|
---------------------------------------o||-------------------------|
----------------------------------------||-------------------------|

|-----------------------------------------------------------------------|
|-----------------------------------------------------------------------|
|-16-13-14-15-16-15-14-13-12-9-10-11-12-11-10-9-------------------------|
|-----------------------------------------------13-10-11-12-13-12-11-10-|
|-----------------------------------------------------------------------|
|-----------------------------------------------------------------------|

|-----------------------------------------------------------------------|
|-----------------------------------------------------------------------|
|-----------------------------------------------------------------------|
|-9-6-7-8-9-8-7-6-------------------------------------------------------|
|-----------------10-7-8-9-10-9-8-7-------------------------------------|
|-----------------------------------11-8-9-10-11-10-9-8-8-5-6-7-8-7-6-5-|

|-------------------------------------------------------------------------|
|-------------------------------------------------------16-16-------17-17-|
|-------------8-8-----9-9-------12-12-------13-13-------------------------|
|-----6-6-----------------------------------------13-13-------14-14-------|
|---------6-6-----7-7-----10-10-------11-11-------------------------------|
|-4-4---------------------------------------------------------------------|

|-------15-15-16----------14--12--------------12---------11--9-------------|
|-----------------13--16----------16--14--16------9--13---------13--11--13-|
|-12-12--------------------------------------------------------------------|
|--------------------------------------------------------------------------|
|--------------------------------------------------------------------------|
|--------------------------------------------------------------------------|

|-11-12-11-8----------------------------||------------------------------|
|------------12-11-10-9-----------------||o-----------------------------|
|-----------------------8-9-8-5---------||------8-8-7--8--9--8--7--8----|
|-------------------------------9-8-7-5-||---6--------------------------|
|---------------------------------------||o---------------------------o-|
|---------------------------------------||------------------------------|
                              PM.......    PM.......................
|-----------------------------------------4-5-6-5-----------------|
|-5-6-7-8-9-8-7-6-5-6-7-8-9-8-7-6-5-6-7-8---------9-8-7-6---------|
|---------------------------------------------------------9-8-7-8-|
|-----------------------------------------------------------------|
|-----------------------------------------------------------------|
|-----------------------------------------------------------------|

|------------------------------||---------------------------------------|
|o---------------------------o-||---------------------------------------|
|------8-8-7--8--9--8--7--8----||-4-5-6-7-8-7-8-5-4-5-6-7-8-7-6-5-4-5-6-|
|---6--------------------------||---------------------------------------|
|o---------------------------o-||---------------------------------------|
|------------------------------||---------------------------------------|
  PM.......................     PM.....................................
|--------------------------------------------------------------------------|
|---4-5-6-5----------------------------------------------------------------|
|-7---------8-7-6-5--------------------------------------------------------|
|-------------------9-8-7-8-6-7-8-9-10-9-8-7-8-9-10-11-12-11-10-9-10-11-12-|
|--------------------------------------------------------------------------|
|--------------------------------------------------------------------------|
PM.........................................................................
|-------------------------------------------------------------------------|
|----------------------------------------9-10-9-8-10-8-9-10-9-8----8-9-10-|
|----------------------------11-12-13-14------------------------11--------|
|-13-14-13-12-11-12-13-14-15----------------------------------------------|
|-------------------------------------------------------------------------|
|-------------------------------------------------------------------------|
PM......................................
|--------------------------------------------------------------------------|
|-9-8-------------------------------------------------9-10-9-8-10-8-9-10-9-|
|-----14-13-12-11----------------------------------------------------------|
|-----------------15-14-13-12-11-12-13-14-15-14-13-12----------------------|
|--------------------------------------------------------------------------|
|--------------------------------------------------------------------------|

|--------------------------------------------------------------------------|
|-8----8-9-10-9-8----------------------------------------------------------|
|---11------------14-13-12-11-------------------------10-11-12-13-14-13-12-|
|-----------------------------15-14-13-12-11-12-13-14----------------------|
|--------------------------------------------------------------------------|
|--------------------------------------------------------------------------|

|-------------------------------------------------------------------------|
|-------------------------------------------------------------------------|
|-11-12-13-14-15-16-15-14-13-14-15-16-17-18-17-16-15-16-17-18-19-20-19-18-|
|-------------------------------------------------------------------------|
|-------------------------------------------------------------------------|
|-------------------------------------------------------------------------|

|----------------------------------------------------------------------|
|----------------16-17-16-15-17-15-16-17-16-15----15-16-17-16-15-17-16-|
|-17-18-19-20-21-------------------------------18----------------------|
|----------------------------------------------------------------------|
|----------------------------------------------------------------------|
|----------------------------------------------------------------------|

|-------------------------------------------------------------------------|
|-15-14-------------------------------------16-17-16-15-17-15-16-17-16-15-|
|-------17-16-15-14-13-14-15-16-17-16-15-14-------------------------------|
|-------------------------------------------------------------------------|
|-------------------------------------------------------------------------|
|-------------------------------------------------------------------------|

|-------------------------------------------------------------------|
|----15-16-17-16-15-17-16-15-14-------------------------13-14-15-16-|
|-18----------------------------17-16-15-14-13-14-15-16-------------|
|-------------------------------------------------------------------|
|-------------------------------------------------------------------|
|-------------------------------------------------------------------|

|-------------12-13-14-15-16-12----12-16-12----12-16-12----12-16-12----12-|
|-17-16-15-16-------------------14----------14----------14----------14----|
|-------------------------------------------------------------------------|
|-------------------------------------------------------------------------|
|-------------------------------------------------------------------------|
|-------------------------------------------------------------------------|

|-16-17-16-14-16-17-16-14-17-16-15-14-------------16-12----12-16-12----12-|
|-------------------------------------17-16-15-14-------14----------14----|
|-------------------------------------------------------------------------|
|-------------------------------------------------------------------------|
|-------------------------------------------------------------------------|
|-------------------------------------------------------------------------|

|-16-12----12-16-12----12-16-17-16-14-16-17-16-14-19-18-17-16-17-18-19-20-|
|-------14----------14----------------------------------------------------|
|-------------------------------------------------------------------------|
|-------------------------------------------------------------------------|
|-------------------------------------------------------------------------|
|-------------------------------------------------------------------------|

|-21-17----17-21-17----17-21-17----17-21-17----17-20-21-20-17-20-21-20-17-|
|-------19----------19----------19----------19----------------------------|
|-------------------------------------------------------------------------|
|-------------------------------------------------------------------------|
|-------------------------------------------------------------------------|
|-------------------------------------------------------------------------|

|-19-18-17-16-17-18-19-20-21-17----17-21-17----17-21-17----17-21-17----17-|
|-------------------------------19----------19----------19----------19----|
|-------------------------------------------------------------------------|
|-------------------------------------------------------------------------|
|-------------------------------------------------------------------------|
|-------------------------------------------------------------------------|

|-21-22-21-19-21-22-21-19-22-21-20-19-------------------------17-18-19-20-|
|-------------------------------------22-21-20-19-18-19-20-21-------------|
|-------------------------------------------------------------------------|
|-------------------------------------------------------------------------|
|-------------------------------------------------------------------------|
|-------------------------------------------------------------------------|

|-21-21-17-17-------------------------------------------------------------|
|-------------19-19-------------------17-18-19-20-21-21-17-17-------------|
|-------------------18-18-17-18-19-20-------------------------18-18-------|
|-------------------------------------------------------------------18-18-|
|-------------------------------------------------------------------------|
|-------------------------------------------------------------------------|

|-------------------------------------------------------------------------|
|-------------16-17-18-19-------------------------------------------------|
|-------------------------17-18-19-20-------------------------------------|
|-16-17-18-19-------------------------16-17-18-19-------------------------|
|-------------------------------------------------15-16-17-18-------------|
|-------------------------------------------------------------14-15-16-17-|
                                                            PM...........
|-------------------------------------------------------------------------|
|-------------------------------------------------------------------------|
|-------------------------------------------------------------------------|
|-------------10-11-12-13-------------------------------------------------|
|-------------------------12-13-14-15-------------12-13-14-15-------------|
|-11-12-13-14-------------------------11-12-13-14-------------11-12-13-14-|
PM...........           PM.......................
|----------------------------------------------------------------------|
|-------------10-11-12-13----------------------------------------------|
|-------------------------11-12-13-14----------------------------------|
|-10-11-12-13-------------------------10-11-12-13----------------------|
|-------------------------------------------------9-10-11-12-----------|
|------------------------------------------------------------8-9-10-11-|

|-------------------------------------------------------------------|
|-------------------------------------------------------------------|
|-------------------------------------------------------------------|
|-------------------------------------------13-10-11-12-13-12-11-10-|
|---------------------12-9-10-11-12-11-10-9-------------------------|
|-12-8-9-10-11-10-9-8-----------------------------------------------|

|-------------------------------------------------17-14-15-16-17-16-15-14-|
|-------------------------16-13-14-15-16-15-14-13-------------------------|
|-14-11-12-13-14-13-12-11-------------------------------------------------|
|-------------------------------------------------------------------------|
|-------------------------------------------------------------------------|
|-------------------------------------------------------------------------|

|--16-15-14-13-------------------------12-13-14-15---||-16-15-14-13-12-13-|
|o-------------17-16-15-14-13-14-15-16--------------o||-------------------|
|----------------------------------------------------||-------------------|
|----------------------------------------------------||-------------------|
|o--------------------------------------------------o||-------------------|
|----------------------------------------------------||-------------------|

|-14-15-14-13-12-11-10-11-12-13-12-11-10-9-8-9-10-11-----------------------|
|----------------------------------------------------9-10-11-12------------|
|---------------------------------------------------------------9-10-11-12-|
|--------------------------------------------------------------------------|
|--------------------------------------------------------------------------|
|--------------------------------------------------------------------------|

|----------------------------||-----------------------------------------|
|o--------------------------o||-5-6-7-8-9-8-7-6-5-6-7-8-9-8-7-6-5-6-7-8-|
|-----8-8-7--8--9--8--7--8---||-----------------------------------------|
|--6-------------------------||-----------------------------------------|
|o--------------------------o||-----------------------------------------|
|----------------------------||-----------------------------------------|
 PM.......................
|-4-5-6-5-----------------|----------------------------|
|---------9-8-7-6---------|o--------------------------o|
|-----------------9-8-7-8-|-----8-8-7--8--9--8--7--8---|
|-------------------------|--6-------------------------|
|-------------------------|o--------------------------o|
|-------------------------|----------------------------|
                           PM.......................
|-------------------------------------------------------------------------|
|-------------------------------------------------------------13-14-15-14-|
|-13-14-15-16-17-16-15-14-13-14-15-16-17-16-15-14-13-14-15-16-------------|
|-------------------------------------------------------------------------|
|-------------------------------------------------------------------------|
|-------------------------------------------------------------------------|

|-------------------------------------------------------------------------|
|-------------------------------------16-15-14-13-------------------------|
|-17-16-15-14-13-12-11-12-13-14-13-12-------------15-14-13-12-13-14-13-12-|
|-------------------------------------------------------------------------|
|-------------------------------------------------------------------------|
|-------------------------------------------------------------------------|

|-------------15-14-13-12-------------------------------------------------|
|-------------------------16-15-14-13-------------------------16-15-14-13-|
|-13-14-13-12-------------------------16-15-14-12-13-14-13-12-------------|
|-------------------------------------------------------------------------|
|-------------------------------------------------------------------------|
|-------------------------------------------------------------------------|

|-------------------------------------19-18-17-16-------------------------|
|-------------------------------------------------20-19-18-17-------------|
|-16-15-14-12-13-14-13-12-13-14-13-12-------------------------20-19-18-16-|
|-------------------------------------------------------------------------|
|-------------------------------------------------------------------------|
|-------------------------------------------------------------------------|

|-------------15-14-13-12-------------------------------------23-22-21-20-|
|-------------------------16-15-14-13-13-14-13-12-13-14-13-12-------------|
|-17-18-17-16-------------------------------------------------------------|
|-------------------------------------------------------------------------|
|-------------------------------------------------------------------------|
|-------------------------------------------------------------------------|

|-------------------------------------------------------------------------|
|-24-23-22-21-------------------------------------------------------------|
|-------------24-23-22-20-21-22-21-22-21-22-21-22-------------------------|
|-------------------------------------------------22-23-22-21-22-23-22-21-|
|-------------------------------------------------------------------------|
|-------------------------------------------------------------------------|

|-------------------------------------------------------------------------|
|-------------------------------------------------------------------------|
|-------------------------------------------------------------------------|
|-18-19-18-17-18-19-18-17-------------------------------------------------|
|-------------------------19-20-19-18-19-20-19-18-15-16-15-14-15-16-15-14-|
|-------------------------------------------------------------------------|

|-----------------------------------------------------------------|
|-----------------------------------------------------------------|
|-----------------------------------------------------------------|
|-----------------------------------------------------------------|
|-----------------------------------------------------------------|
|-16-17-16-15-16-17-16-15-12-13-12-11-12-13-12-11-8-9-8-7-8-9-8-7-|

|-----------------------------------------------------------------------|
|-----------------------------------------------------------------------|
|------------------------------------------5-6-7-8-11-10-9-8-9-10-11-12-|
|----------------------------------6-7-8-9------------------------------|
|---------3-4-5-6-9-8-7-6-7-8-9-10--------------------------------------|
|-4-5-6-7---------------------------------------------------------------|

|------------8-9-10-11-14-13-12-11-12-13-14-15-16~-------------------------|
|-9-10-11-12-----------------------------------------16-16-16~-------------|
|--------------------------------------------------x-----------x-13-13~~\\-|
|--------------------------------------------------------------------------|
|--------------------------------------------------------------------------|
|--------------------------------------------------------------------------|

            
            
Suggest correction
Creating personal tab
Creating personal tab
You can edit any tab online and save it as your Personal.

You can edit, replace or remove any tab part or add personal notes – all changes will be seen only by you.

Personal tabs can be accessed anytime from any device, even offline.
Learn more »
Give kudos to tab author, rate the tab!
1 2 3 4 5
comments
print report bad tab
4 comments total. Showing first comments.
0 reply
Kevin67 20 Jan 08, 2007 04:41 PM

Guitar World?

0 reply
mohawkkidJohn 102 Jul 28, 2007 07:47 PM

the only reason the difficulty on this tab is advanced is cas there is no choice for"Mother****ing imppossible so dont try".

0 reply
jondavis 10 Aug 15, 2007 08:50 PM

dude this isnt impossible to play.you just gotta learn it,once u do that the speed just comes to it

guest
You may want to rate the tab now too:
select rating
Wanna post a correction for this tab? Suggest correction