Oops, an error
Loading. Please wait.

Damage Control bass

version 1
version 1

Whole song

10,003 views 3 this week
no commentswrite comment
1 2 3 4 5
2 more votes to show rating
add to favorites
×
Save as Personal and add changes to this tab that will be seen only by you. Learn more ›
×
You can save this tab as Personal to edit and correct it or add notes. All changes will be seen only by you. Learn more »
launch autoscroll
font size
0
reset
guitar tuner
backing track
0:00
0:00
edit
Autoscroll
slow
fast
+/-
esc
set tempo
stop
Author
                            DAMAGE CONTROL (Bassline)
                          As recorded by John Petrucci
                    (From the 2005 Album SUSPENDED ANIMATION)

Gtr I (B E A D G) - 'Bass'

 Intro
  Slow Metal Q=68
 4/4        7/8       4/4
  Gtr I
                                          |-3-|
  W          W         W          H.      E E E
|----------|---------|----------|---------------|
|----------|---------|----------|---------------|
|----------|---------|----------|---------------|
|----------|---------|----------|-------------0-|
|----------|---------|----------|---------1-2---|


    S S S S S S S S S S S S S S E
||--------------------------------|
||o-------------------------------|
||--------------------------------|
||o-2-2-x-x-2p0-2-2-x-x-2p0-2s7-5-|
||--------------------------------|


  1.                              2.
 7/8                             4/4
                                                          |-3-|
  S S S S S S S S S S S S S S     S S S S S S S S S S S S E E E
|------------------------------||-------------------------------|
|-----------------------------o||-------------------------------|
|-------------------------2s3--||-------------------------------|
|-2-2-x-x-2p0-2-2-x-x-2p0-----o||-2-2-x-x-2p0-2-2-x-x-2p0-----0-|
|------------------------------||-------------------------1-2---|


   7/8                           4/4
    S S S S S S S S S S S S S S   S S S S S S S S S S S S S S S S
||------------------------------|----------------------------------||
||o-----------------------------|---------------------------------o||
||------------------------------|----------------------------------||
||o-2-2-x-x-2-0-2-2-x-x-2-0-2s3-|-2-2-x-x-2-0-2-2-x-x-2-0-2-0-x-x-o||
||------------------------------|----------------------------------||


 7/8
  S e S S S S S S S S S S S
|---------------------------|
|---------------------5-----|
|-------------------5---5---|
|-2-2-0-2-0-2-2---3-------3-|
|---------------------------|


 4/4                           7/8
  S e S S S S S S S S S S E S   S e S S S S S S S S S S S
|-----------------------------|---------------------------|
|-----------------------------|---------------------5-----|
|-----------------------------|-------------------5---5---|
|-2-2-0-2-0-2-2---2-2-2-2-0-0-|-2-2-0-2-0-2-2---3-------3-|
|-----------------------------|---------------------------|


 4/4
  S e S S S S S S S S S S S E
|------------------------------|
|------------------------------|
|------------------------------|
|-2-2-0-2-0-2-2----------------|
|-----------------3-3-3-3-5-5\-|


 7/8                         4/4
  S e S S S S S S S S S S S   S e S S S S S S S S S S E.
|---------------------------|----------------------------|
|---------------------5-----|---------------------4-2----|
|-------------------5---5---|-------------------4--------|
|-2-2-0-2-0-2-2---3-------3-|-2-2-0-2-0-2-2---2-------0--|
|---------------------------|----------------------------|


 7/8
  S e S S S S S S S S S S S
|---------------------------|
|---------------------5-----|
|-------------------5---5---|
|-2-2-0-2-0-2-2---3-------3-|
|---------------------------|


 4/4
  S e S S S S S S S S S S S E     E S S E S S e E E S S
|------------------------------||------------------------|
|------------------------------||------------------------|
|------------------------------||-2---2-2---2-0-0-0------|
|-2-2-0-2-0-2-2----------------||-------------------3-2--|
|-----------------3-3-3-3-5-5\-||------------------------|


  E S S E S S S S S S E S S   e E E S S e E E S S   S S S S S S S S e E Q
|---------------------------|-----4---------------|-------------------------||
|-------2---------5---------|---------------7-----|-------------------------||
|---------------5---5-----0-|-2-2---0-2-4-4---5-5-|-7-------7-----------3---||
|-0---0---0-2-3-------3-3---|---------------------|---0-0-0---0-0-2---------||
|---------------------------|---------------------|-----------------1-1-----||


                                    1.
                                   7/8
    S S S S S S S S S S S S S S E   S S S S S S S S S S S S S S
||--------------------------------|------------------------------||
||o-------------------------------|-----------------------------o||
||--------------------------------|-------------------------2s3--||
||o-2-2-x-x-2p0-2-2-x-x-2p0-2s7-5-|-2-2-x-x-2p0-2-2-x-x-2p0-----o||
||--------------------------------|------------------------------||


  2.
 4/4
                  |-3-| |-3-| |-3-|
  S S S S S S S S S S S S S S E E E
|------------------------------------||
|------------------------------------||
|------------------------------------||
|-2-2-x-x-2p0-2-2-x-x-x-x-x-x-----0--||
|-----------------------------1-2----||


 7/8
  S e S S S S S S S S S S S
|---------------------------|
|---------------------5-----|
|-------------------5---5---|
|-2-2-0-2-0-2-2---3-------3-|
|---------------------------|


 4/4                           7/8
  S e S S S S S S S S S S E S   S e S S S S S S S S S S S
|-----------------------------|---------------------------|
|-----------------------------|---------------------5-----|
|-----------------------------|-------------------5---5---|
|-2-2-0-2-0-2-2---2-2-2-2-0-0-|-2-2-0-2-0-2-2---3-------3-|
|-----------------------------|---------------------------|


 4/4
  S e S S S S S S S S S S S E
|------------------------------|
|------------------------------|
|------------------------------|
|-2-2-0-2-0-2-2----------------|
|-----------------3-3-3-3-5-5\-|


 7/8                         4/4
  S e S S S S S S S S S S S   S e S S S S S S S S S S E.
|---------------------------|----------------------------|
|---------------------5-----|---------------------4-2----|
|-------------------5---5---|-------------------4--------|
|-2-2-0-2-0-2-2---3-------3-|-2-2-0-2-0-2-2---2-------0--|
|---------------------------|----------------------------|


 7/8
  S e S S S S S S S S S S S
|---------------------------|
|---------------------5-----|
|-------------------5---5---|
|-2-2-0-2-0-2-2---3-------3-|
|---------------------------|


 4/4
  S e S S S S S S S S S S S E     E S S E S S e E E S S
|------------------------------||------------------------|
|------------------------------||------------------------|
|------------------------------||-2---2-2---2-0-0-0------|
|-2-2-0-2-0-2-2----------------||-------------------3-2--|
|-----------------3-3-3-3-5-5\-||------------------------|


  E S S E S S e E E S S   e E E S S e E E S S   S S S S S S S S e E Q
|-----------------------|---------------------|-------------------------||
|-------2---------------|---------------7-----|---------------------5---||
|---------------------0-|-2-2-2-0-2-4-4---5-5-|-7-------7---------------||
|-0---0---0-2-3-3-3-3---|---------------------|---0-0-0---0-0-2-3-3-----||
|-----------------------|---------------------|-------------------------||


 7/8
  E S S E S S S S S S +S  S   E S S E E S S S S E   E S S E S S S S S S +E
|---------------------------|---------------------|-------------------------|
|---------------------------|---------------------|-------------------------|
|-------5-------------------|-------5---3-------3-|-------5-----------------|
|-------------6-6-6-6-(6)-6-|---------------------|-------------6-6-6-6-(6)-|
|-3-3-3---3-3---------------|-3-3-3---3---1-1-1---|-3-3-3---3-3-------------|


 6/8                                                      5/8
   S  S  S  S S  S S S S S S S   S S S S S S S S S S S S   S S S S S S S S S S
|-11-------11-9----7-----7-6---|-4-----4-2---------------|-----4-6-7-----6-7-9-|
|---------------11-----------7-|-----------4---4-5---4-5-|---------------------|
|-------12-------------9-------|-----5-------------------|---5---------7-------|
|----10--------------7---------|---3---------0-----2-----|-3---------5---------|
|------------------------------|-------------------------|---------------------|


 7/8
  E S S E S S S S S S +S  S   E S S E S S S S S S E   E. S E S S S S S S +E
|---------------------------|-----------------------|------------------------|
|---------------------------|-----------------------|------------------------|
|-------5-------------------|-------5-----3-------3-|------5-----------------|
|-------------6-6-6-6-(6)-6-|---------------3---3---|------------6-6-6-6-(6)-|
|-3-3-3---3-3---------------|-3-3-3---3-3-----1-----|-3--3---3-3-------------|


 6/8                            3/8
   S  S  S  S S  S S S S S S S   S S S S S S
|-11-------11-9----7-----7-6---|-4-----4-2---|
|---------------11-----------7-|-----------4-|
|-------12-------------9-------|-----5-------|
|----10--------------7---------|---3---------|
|------------------------------|-------------|


 6/8
  E S  E S E S S S S    E S S S S E S E S
|--------------------||-------------------|
|-----/7-7-----7-----||-----5-5-5-----5---|
|-0-0------0-0---7-0-||-------------------|
|--------------------||-3-3-------3-3---3-|
|--------------------||-------------------|


  E S E S  S S S S S S   E S E S  S S S S S S
|----------------------|-----4------2-----4---|
|-----7------5---------|---------/4---4-------|
|-0-0---0-/7---7-5-4-0-|-2-2---0--------2---2-|
|----------------------|----------------------|
|----------------------|----------------------|


  S S S E S S S S S S S   E S S S S E S S S S
|-----------------------|-----------------------|
|-----------------------|-----4h5-5-----5-5-5---|
|-7-----5-7-7-----7-----|-----------------------|
|---0-0-------0-0---0-2-|-3-3-------3-3---------|
|-----------------------|-----------------------|


                       4/4
                                                 ~~
  E S E S S S S E S     E S S E S S +S  S  S  S  E  S  S
|-------------------||--------------------12-14-15-14-12-|
|-----7-7-------7---||o-------0-0-0-(0)-0--0--0--0--0--0-|
|-0-0-----0-0-0---0-||-----------------------------------|
|-------------------||o----------------------------------|
|-------------------||--3-3-3----------------------------|


   ~~~
   E. S  S  S  S  S E S S E E
|-11----11h12-11\--------------|
|--0--0--0--0--0---------------|
|-------------------------3----|
|------------------------------|
|-----------------0-1-1-1---1--|


                           ~~
  E S S E S S +S  S  S  S  E  S  S
|-------------------12-14-15-14-12-|
|-------0-0-0-(0)-0--0--0--0--0--0-|
|----------------------------------|
|----------------------------------|
|-3-3-3----------------------------|


  1.                              2.
   ~~~                             ~~~
   E. S  S  S  S  S S E. S E.      E. S  S  S  S  S S S E S S E
|-11----11h12-11\--------------||-11----11h12-11\----------------||
|--0--0--0--0--0--------------o||--0--0--0--0--0-----------------||
|-----------------0-3-1--------||-----------------0-3-1----------||
|------------------------3-1--o||-------------------------3-1----||
|------------------------------||--------------------------------||


    Double Time Q=136
    E S S +S  S E      +E   E S E.
||------------------------------2--|
||o--------------------------------|
||--0-0-0-(0)-0-3b3.5==(3)r-0-0----|
||o--------------------------------|
||---------------------------------|


  E S S +S  S E S S S S Q    E S S +S  S E      +E   E S E.
|--------------------------|-----------------------------2--|
|--------------------------|--------------------------------|
|-0-0-0-(0)-0-0-0-0-0-0----|-0-0-0-(0)-0-3b3.5==(3)r-0-0----|
|-----------------------3--|--------------------------------|
|--------------------------|--------------------------------|


  E S S +S  S E Q  Q          E S S +S  S E S E S S S E
|----------------------||-||----------------------------|
|---------------------o||-||o-----4-(4)-4-----2-2-----2-|
|-0-0-0-(0)-0-0----5---||-||----------------------2h4---|
|---------------3-----o||-||o-2-2---------2-2-----------|
|----------------------||-||----------------------------|


  E S S +S  S E E E E S S
|--------------------------|
|-----4-(4)-4--------------|
|---------------0---2------|
|-2-2---------2---2---5s4--|
|--------------------------|


                              1.
  E S S +S  S E S E S S S E   E S S +S  S E S S S S S S S S
|---------------------------|--------------------------------||
|-----4-(4)-4-----2-2-----2-|-----4-(4)-4---4-2-------------o||
|---------------------2h4---|-------------------4-3-2-0------||
|-2-2---------2-2-----------|-2-2---------2-------------2-0-o||
|---------------------------|--------------------------------||


  2.
                |-3-|
  E S S +S  S E S S S S S S S S S
|---------------2h3p2---------------||
|-----4-(4)-4---------4-2-----------||
|-------------------------4-3-2-0---||
|-2-2---------2---------------------||
|-----------------------------------||


    E S S +E  E +E  S S S S S S  4x
||-------------------------------||-|
||o-----------------------------o||-|
||--6-6-6-(6)-6-(6)-4-4-4-4-4-4--||-|
||o-----------------------------o||-|
||-------------------------------||-|


    S S S S +E  E +E  S S S S S S  4x     E. S E E E S S S S S S
||---------------------------------||-||-------------------------|
||o-------4-(4)-------------------o||-||o------------------------|
||--6-6-6-------6-(6)-4-4-4-4-4-4--||-||--3--3---3-----------1-1-|
||o-------------------------------o||-||o------------1-1-3-3-----|
||---------------------------------||-||-------------------------|


  E. S E E E S S S S S S   E. S E E E S S S S S S   E. S E S S E S S Q
|------------------------|------------------------|----------------------||
|------------------------|------------------------|---------------------o||
|-3--3---3-----------1-1-|-3--3---3-----------1-1-|-3--3---3-3-5-3-3-5---||
|------------1-1-3-3-----|------------1-1-3-3-----|---------------------o||
|------------------------|------------------------|----------------------||


   Guitar Solo
    E S S S S E      +E   E S E.
||----------------------------2--|
||o------------------------------|
||--0-0-0-0-0-3b3.5==(3)r-0-0----|
||o------------------------------|
||-------------------------------|


  E S S +S  S E S S S S Q    E S S +S  S E      +E   E S E.
|--------------------------|-----------------------------2--|
|--------------------------|--------------------------------|
|-0-0-0-(0)-0-0-0-0-0-0----|-0-0-0-(0)-0-3b3.5==(3)r-0-0----|
|-----------------------3--|--------------------------------|
|--------------------------|--------------------------------|


  E S S +S  S E Q  Q          E S S +S  S E S E S S S E
|----------------------||-||----------------------------|
|---------------------o||-||o-----4-(4)-4-----2-2-----2-|
|-0-0-0-(0)-0-0----5---||-||----------------------2h4---|
|---------------3-----o||-||o-2-2---------2-2-----------|
|----------------------||-||----------------------------|


  E S S +S  S E E E E S S
|--------------------------|
|-----4-(4)-4--------------|
|---------------0---2------|
|-2-2---------2---2---5s4--|
|--------------------------|


                              1.
  E S S +S  S E S E S S S E   E S S +S  S E S S S S S S S S
|---------------------------|--------------------------------||
|-----4-(4)-4-----2-2-----2-|-----4-(4)-4---4-2-------------o||
|---------------------2h4---|-------------------4-3-2-0------||
|-2-2---------2-2-----------|-2-2---------2-------------2-0-o||
|---------------------------|--------------------------------||


  2.
                |-3-|
  E S S +S  S E S S S S S S S S S
|---------------2h3p2---------------||
|-----4-(4)-4---------4-2-----------||
|-------------------------4-3-2-0---||
|-2-2---------2---------------------||
|-----------------------------------||


     E  S  S  +E   E  +E  S S S S S S  4x
||-------------------------------------||-|
||o-----------------------------------o||-|
||-------------------------------------||-|
||o-11-11-11-(11)-11-(11)-9-9-9-9-9-9-o||-|
||-------------------------------------||-|


     S  S  S S +E   E  +E  S S S S S S  4x     E. S E E E S S S S S S
||--------------------------------------||-||-------------------------|
||o------------------------------------o||-||o------------------------|
||-----------9-(9)----------------------||-||--3--3---3-----------1-1-|
||o-11-11-11-------11-(11)-9-9-9-9-9-9-o||-||o------------1-1-3-3-----|
||--------------------------------------||-||-------------------------|


  E. S E E E S S S S S S   E. S E E E S S S S S S   E. S E S S E S S Q
|------------------------|------------------------|----------------------||
|------------------------|------------------------|---------------------o||
|-3--3---3-----------1-1-|-3--3---3-----------1-1-|-3--3---3-3-5-3-3-5---||
|------------1-1-3-3-----|------------1-1-3-3-----|---------------------o||
|------------------------|------------------------|----------------------||


 Bass Solo
  S S S S S S S  S  S  S  S  S  S  S  S  S
|-5-----7-----9-------11-------12----14----|
|---7-7---9-9---10-10----12-12----14----14-|
|------------------------------------------|
|------------------------------------------|
|------------------------------------------|


                                        ~~
   S  S  S  S  S  S   S  S  S  S  S  S  E E
|-12-------12-------------------------------|
|----12h14----14-13-\12----10----12----10---|
|-----------------------12----12----12------|
|-------------------------------------------|
|-------------------------------------------|


   S  S  S  S  S  S  S  S  S  S  S  S  S  S  S  S
|-------12-------14-------12-------14-------12----|
|-10-11----10-11----10-11----10-11----10-11----10-|
|-------------------------------------------------|
|-------------------------------------------------|
|-------------------------------------------------|


   S  S  S  S  S  S  S  S  S  S  S  S  S  S S  S
|-14-12------------------------------------------|
|-------14-13s12-10-------10---------------------|
|-------------------12-10----12-10---------------|
|----------------------------------12-11s10-8----|
|---------------------------------------------10-|


   S  S  S  S  S  S  S  S  S  S  S  S  S  S  S  S
|-------------------------------------------------|
|-------------------10----12----10h11-------------|
|----------10-11-12----12----12-------12-11-10----|
|-10-11-12-------------------------------------12-|
|-------------------------------------------------|


                                      ~
   S  S  S  S  S  S   S S  S  S  S  S E E
|-----------------------------------------|
|-----------------------------------------|
|-10-------10-----------------------------|
|----11-12----12-11-\10-8-------10----8---|
|-------------------------10-10----10-----|


  S S S S S S S S S S S S S S S S   S S S S S S S S S S S S S S S S
|-5-------7-------8-----7-----5---|-7-5-----5-----------------------||
|---7-7-7---7-7-7---7-7---7-7---7-|-----7-5---7-5-------------------||
|---------------------------------|---------------7-5-0-7-0-0-0-0-0-||
|---------------------------------|---------------------------------||
|---------------------------------|---------------------------------||


    S S S S S S S S S S S S S S S S
||----------------------------------|
||o---------------------------------|
||--------2-------5---3---2---------|
||o-2-3-5---5-3-2---2---5---5-3-2-3-|
||----------------------------------|


  S S S S +S  S S S S E S S E S   S S S S S S S S S S S S S S S S
|-------------------------------|----------------------------------|
|-------------------------------|-------2-------5---4---2----------|
|-------------------------------|----------------------------------|
|-0-0-0-0-(0)-0-0-0-0-0-0-0-0-0-|-2-3-5---5-3-2---2---5---5-3-2-3--|
|-------------------------------|----------------------------------|


  1.
  S S S S +S  S S S S E S S E S
|--------------------------------||
|-------------------------------o||
|-3-3-3-3-(3)-3-3-3-3-3-3-3-3-3--||
|-------------------------------o||
|--------------------------------||


  2.
  S S S S +S  S S S S E S S E S    S S S S +S  S E S S S S S E.
|-------------------------------||-------------------------------|
|-------------------------------||-------------------------------|
|-0-0-0-0-(0)-0-0-0-0-0-0-0-0-0-||-3-3-3-3-(3)-3-3---------------|
|-------------------------------||-----------------0-0-0-0-0-0---|
|-------------------------------||-------------------------------|


  S S S S +S  S E  S S S S Q
|------------------------------|
|------------------------------|
|-3-3-3-3-(3)-3-3-/7-7-7-7-7\--|
|------------------------------|
|------------------------------|


  S S S S +S  S E S S S S S E.   S S S S +S  S E S S S S Q
|------------------------------|----------------------------|
|------------------------------|----------------------------|
|-3-3-3-3-(3)-3-3--------------|-3-3-3-3-(3)-3-3-2-2-2-2----|
|-----------------0-0-0-0-0-0--|-------------------------0--|
|------------------------------|----------------------------|


  S S S S +S  S E S S S S S E.
|------------------------------|
|------------------------------|
|-3-3-3-3-(3)-3-3--------------|
|-----------------0-0-0-0-0-0--|
|------------------------------|


                                3/4
  S S S S +S  S E  S S S S Q     S S S S +S  S E S S S S
|------------------------------|--------------------------|
|------------------------------|--------------------------|
|-3-3-3-3-(3)-3-3-/7-7-7-7-7\--|-3-3-3-3-(3)-3-3----------|
|------------------------------|-----------------0-0-0-0--|
|------------------------------|--------------------------|


  S S S S +S  S E S S S S   S S S S +S  S E S S S S   S S S S S S S S S S S S
|-------------------------|-------------------------|-------------------------|
|-------------------------|-------------------------|-------------------------|
|-0-0-0-0-(0)-0-0-5-5-5-5-|-7-7-7-7-(7)-7-7-0-0-0-0-|-2-2-2-2-3-3-3-3-5-5-5-5-|
|-------------------------|-------------------------|-------------------------|
|-------------------------|-------------------------|-------------------------|


 4/4
  S S S S S S S S S S S S S S S S   Q  Q  Q  Q    Q  Q  Q  Q
|---------------------------------|-------------|-------------||
|---------------------------------|-5-----------|-------------||
|-7-7-7-7-7-7-7-7-7-7-7-7-7-7-7-7-|----7--4-----|-------4-----||
|---------------------------------|----------6--|-3--6-----6--||
|---------------------------------|-------------|-------------||


 2/2
  Q  E E Q   Q    E. S E E Q   E S S   E. S E E Q   Q    E. e S E Q   Q
|---------------|--------------------|-----------------|------------------||
|---------------|----5-----------3h5-|----5------------|----5-5-----------||
|---------------|--------------------|-----------------|------------------||
|-3----3-3\-----|-3------3-3\--------|-3------3-3\-----|-3------3-3\------||
|---------------|--------------------|-----------------|------------------||


  E. S E E Q   Q    E. S E E Q   Q    E. S E E Q   Q    E. e S E Q   Q
|-----------------|-----------------|-----------------|-----------------||
|----8------------|----8------------|----8------------|----8-8----------||
|-----------------|-----------------|-----------------|-----------------||
|-6------6-6\-----|-6------6-7\--4--|-6------6-6\-----|-6------6-7\--4--||
|-----------------|-----------------|-----------------|-----------------||


   S S  S  S S  S S  S S  S  S S  S S  S  S
|-----------------8-10-8--------------------|
|----9-12----9-12--------12-10-9----9-10-12-|
|-10------10---------------------10---------|
|-------------------------------------------|
|-------------------------------------------|


                                  ~~
   S S  S  S S  S S  S S  S  S S  Q
|-----------------8-10-8-------------|
|----9-12----9-12--------12-10-9-----|
|-10------10---------------------10--|
|------------------------------------|
|------------------------------------|


   S S  S  S S  S S  S S  S  S S  S S  S  S
|-----------------8-10-8--------------------|
|----9-12----9-12--------12-10-9----9-10-12-|
|-10------10---------------------10---------|
|-------------------------------------------|
|-------------------------------------------|


                                        ~~
                        |-3--|  |-3--|
   S S  S  S S  S S  S  S  S S  S  S S  Q
|-----------------8-10-12p10p8--------------||
|----9-12----9-12--------------12p10p9------||
|-10------10---------------------------10---||
|-------------------------------------------||
|-------------------------------------------||


   S  S  S  S  S  S  S  S  S  S  S  S  S  S  S  S
|-------------------11-13-11----------------------|
|----12-15----12-15----------15-13-12----12-13-15-|
|-13-------13-------------------------13----------|
|-------------------------------------------------|
|-------------------------------------------------|


                                       ~~
   S  S  S  S  S  S  S  S  S  S  S  S  Q
|-------------------11-13-11--------------|
|----12-15----12-15----------15-13-12-----|
|-13-------13-------------------------13--|
|-----------------------------------------|
|-----------------------------------------|


   S  S  S  S  S  S  S  S  S  S  S  S  S  S  S  S
|-------------------11-13-11----------------------|
|----12-15----12-15----------15-13-12----12-13-15-|
|-13-------13-------------------------13----------|
|-------------------------------------------------|
|-------------------------------------------------|


   S  S  S  S  S  S  S  S  S  S  S  S  S  S  S  S
|-------------------11-15-13-11----------------13-||
|----12-15----12-15-------------15-13-12-13-15----||
|-13-------13-------------------------------------||
|-------------------------------------------------||
|-------------------------------------------------||


 4/4
  S S S S S S S S S S S S e E   S S S S S S S S S S S S e E
|-----------------------------|-----------------------------|
|-6h8-8-8-8-8-6h8-8-8-8-8-----|-----------------------------|
|-----------------------------|-6-6-6-6-7-7-7-7-------------|
|-------------------------6---|-----------------0-0-0-0-0---|
|-----------------------------|-----------------------------|


  S S S S S S S S E E +S   E.
|------------------------------|
|------------------------------|
|------------------------------|
|-6-6-6-6-6-6-6-6-6-2-(2)-/5---|
|------------------------------|


  S S S S S S S S E   E  +S   E.
|--------------------------------||
|--------------------------------||
|-4-4-4-4-4-4-4-4-4-/12-(12)-10--||
|--------------------------------||
|--------------------------------||


  A Tempo Q=68
 6/8
   S  S  S  S S  S S S S S S S   S S S S S S S S S S S S
|-11-------11-9----7-----7-6---|-4-----4-2----------------|
|---------------11-----------7-|-----------4-5-----5-4----|
|-------12-------------9-------|-----5-----------2-----5--|
|----10--------------7---------|---3-----------0----------|
|------------------------------|--------------------------|


  S S S S S S  S S S S S S   S S S S S S S S S S S S
|--------------------------|-------------------------||
|-------------/7-7-7-7-7-7-|-------------7-5-4-------||
|-0-0-0-0-0-0--------------|-0-0-0-0-0-0-------7-5-4-||
|--------------------------|-------------------------||
|--------------------------|-------------------------||


 7/8
  E S S E S S S S S S +S  S
|----------------------------|
|----------------------------|
|---5---5--------------------|
|-------------6-6-6-6-(6)-6--|
|-3---3---3-3----------------|


  E. S E S S S S S S E   E S S E S S S S S S +E
|----------------------|-------------------------|
|----------------------|-------------------------|
|------5-----3-------3-|-------5-----------------|
|--------------3---3---|-------------6-6-6-6-(6)-|
|-3--3---3-3-----1-----|-3-3-3---3-3-------------|


 6/8
   S  S  S  S S  S S S S S S S
|-11-------11-9----7-----7-6---|
|---------------11-----------7-|
|-------12-------------9-------|
|----10--------------7---------|
|------------------------------|


                           5/8                   7/8
  S S S S S S S S S S S S   S S S S S S S S S S   E S S E S S S S S S +S  S
|-4-----4-2---------------|-----4-6-7-----6-7-9-|---------------------------|
|-----------4---4-5---4-5-|---------------------|---------------------------|
|-----5-------------------|---5---------7-------|-------5-------------------|
|---3---------0-----2-----|-3---------5---------|-------------6-6-6-6-(6)-6-|
|-------------------------|---------------------|-3-3-3---3-3---------------|


  E S S E S S S S S S E   E S S E S S S S S S +E
|-----------------------|-------------------------|
|-----------------------|-------------------------|
|-------5-----3-------3-|-------5-----------------|
|-----------------------|-------------6-6-6-6-(6)-|
|-3-3-3---3-3---1-1-1---|-3-3-3---3-3-------------|


 6/8
   S  S  S  S S  S S S S S S S
|-11-------11-9----7-----7-6----|
|---------------11-----------7--|
|-------12-------------9--------|
|----10--------------7----------|
|-------------------------------|


 3/8           6/8
  S S S S S S   E S  E S E S S S S    E S E S E S E S   E S E S  S S S S S S
|-4-----4-2---|--------------------||-----------------|----------------------|
|-----------4-|-----/7-7-----7-----||-----5-5-----5---|-----7-7----5---------|
|-----5-------|-0-0------0-0---7-0-||-----------------|-0-0-----/7---7-5-4-0-|
|---3---------|--------------------||-3-3-----3-3---3-|----------------------|
|-------------|--------------------||-----------------|----------------------|


  E S E S  S S S S S S   S S S E S S S S S S S
|-----4------7s6-4-----|-----------------------|
|---------/4-------4---|-----------------------|
|-2-2---0------------2-|-7-----5-7-7-----7-----|
|----------------------|---0-0-------0-0---0-2-|
|----------------------|-----------------------|


  E S E S E S E S   E S E S  S S S S S S
|-----------------|-----------------------|
|-----5-5-----5---|-----7------5----------|
|-----------------|-0-0---0-/7---7-5-4-0--|
|-3-3-----3-3---3-|-----------------------|
|-----------------|-----------------------|


  E S E S  S S S S S S   S S S E S S S S S S S
|-----4------2-----4---|-----------------------|
|---------/4---4-------|-----------------------|
|-2-2---0--------2---2-|-7-----5-7-7-----7-----|
|----------------------|---0-0-------0-0---0-2-|
|----------------------|-----------------------|


  E S E S E S E S   S S S  E S  S S S  E  S
|-----------------|--------------------------||
|-----5-5---5-5---|-------12---11-----12-11--||
|-----------------|-0-0-0----0----0-0--------||
|-3-3-----3-----3-|--------------------------||
|-----------------|--------------------------||


   Outro
   4/4
                             ~~
    E S S E S S +S  S  S  S  E  S  S
||--------------------12-14-15-14-12-|
||o-------0-0-0-(0)-0--0--0--0--0--0-|
||-----------------------------------|
||o----------------------------------|
||--3-3-3----------------------------|


   ~~~                                                   ~~
   E. S  S  S  S  S E S S E E   E S S E S S +S  S  S  S  E  S  S
|-11----11h12-11\-------------|-------------------12-14-15-14-12---|
|--0--0--0--0--0--------------|-------0-0-0-(0)-0--0--0--0--0--0---|
|-------------------------3---|------------------------------------|
|-----------------------------|------------------------------------|
|-----------------0-1-1-1---1-|-3-3-3------------------------------|


  1.,2.,3.                        4.    H.=H                    E=68
   ~~~                             ~~~
   E. S  S  S  S  S S E. S E.      E. S  S  S  S  S S E. S E.   W
|-11----11h12-11\--------------||-11----11h12-11\-------------|------*|
|--0--0--0--0--0--------------o||--0--0--0--0--0--------------|------*|
|-----------------0-3-1--------||-----------------0-3-1-------|------*|
|------------------------3-1--o||------------------------3-1--|------*|
|------------------------------||-----------------------------|-3----*|

***************************************************************************************
* Generated using Power Tab Editor by Brad Larsen - http://powertab.guitarnetwork.org *
***************************************************************************************

            
            
Suggest correction
Creating personal tab
Creating personal tab
You can edit any tab online and save it as your Personal.

You can edit, replace or remove any tab part or add personal notes – all changes will be seen only by you.

Personal tabs can be accessed anytime from any device, even offline.
Learn more »
Give kudos to tab author, rate the tab!
1 2 3 4 5
comments
print report bad tab
guest
You may want to rate the tab now too:
select rating
Wanna post a correction for this tab? Suggest correction