Oops, an error
Loading. Please wait.

Wishful Thinking tab

version 2
version 2

Whole song

Interactive

24,226 views 3 this week
1 commentread comment
1 2 3 4 5
x 8
add to favorites
×
Save as Personal and add changes to this tab that will be seen only by you. Learn more ›
×
You can save this tab as Personal to edit and correct it or add notes. All changes will be seen only by you. Learn more »
launch autoscroll
font size
0
reset
how to read this tab
guitar tuner
backing track
0:00
0:00
edit
Autoscroll
slow
fast
+/-
esc
set tempo
stop
Difficulty
intermediate
*This is not my work...*
Solo
      E   E   E   E  E   E  E   E     E   E   H         E   S   S
E||--------------------------------|------------------------------|
B||--19--18--19---------18--L--19--|--L--18--19--------19--19S-21-|
G||--------------18--L-------------|------------------------------|
D||--------------------------------|------------------------------|
A||--------------------------------|------------------------------|
E||--------------------------------|------------------------------|


   E   E   E   E  E   E  E   E      H.            Q
--------------------------------|----------------------|
--19--18--19--------------------|----------------18----|
--------------18--L--16--L--18--|--18------------------|
--------------------------------|----------------------|
--------------------------------|----------------------|
--------------------------------|----------------------|


                                                     |--3--|
   E   E   E   E  E   E  E   E      E   E  H         S  S  S  E
----------------------------18--|--16--18--L-----------16-18-19--|
--19--18--19---------18--L------|-------------------19-----------|
--------------18--L-------------|--------------------------------|
--------------------------------|--------------------------------|
--------------------------------|--------------------------------|
--------------------------------|--------------------------------|


  E   Q       Q.      E    E     W                   Q    E   Q    Q    E
--L--18br----16------14-------|-------------------|------------------------|
-------------------------/19--|--L----------------|--L---------------------|
------------------------------|-------------------|----------/6----4----3--|
------------------------------|-------------------|------------------------|
------------------------------|-------------------|------------------------|
------------------------------|-------------------|------------------------|


                                                                >
  Q    E  Q.     S  S  E     H        E  E  E  E      E   Q     H         S S
--------------------------|------------------------|--------------------------|
----------7---------------|------------------------|-----------/9~------------|
--L----6------------------|------------------------|--------------------------|
-----------------6S-8S-6--|--L-----------6--8--9S--|--L--11---------------8-9-|
--------------------------|------------------------|--------------------------|
--------------------------|------------------------|--------------------------|


  H        Q.     E     Q      E   E   Q        E   E     H        Q.      E
---------------------|---------------------------------|----------------------|
---------------------|---------------------------------|----------------------|
---------------------|--8~----10--10b--Lpbr------------|----------------------|
--8--------L------8--|-------------------------11--10--|--L--------L------10--|
---------------------|---------------------------------|----------------------|
---------------------|---------------------------------|----------------------|


  Q     E   E    Q        E   E     Q.      Q    Q    E
---------------------------------|-----------------------|
--9----11--11b---Lpbr------------|-----------------------|
-------------------------11--10--|--L------/6----4----3--|
---------------------------------|-----------------------|
---------------------------------|-----------------------|
---------------------------------|-----------------------|


  E  E  E   E  E  E  E  E     H        E  E  E  E
---------------------------|------------------------|
-----------/9--L--7--L-----|------------------------|
--L--6--L------------------|------------------------|
------------------------6--|--L-----------6--8--9S--|
---------------------------|------------------------|
---------------------------|------------------------|


  E   Q     Q    Q      S  S     H        H
-----------------------------|----------------------|
-----------11----9~----11-12-|--11--------9~--------|
-----------------------------|----------------------|
--L--11----------------------|----------------------|
-----------------------------|----------------------|
-----------------------------|----------------------|


   Q    E   E  E  E  E  E     H        Q.     E
---------------------------|---------------------|
--\7----9--11--L--9--7--9--|--L--------L---------|
---------------------------|------------------8--|
---------------------------|---------------------|
---------------------------|---------------------|
---------------------------|---------------------|


  Q     E   E  E   S  S  S  S  S  S     E.   S  S  S  E  S  S  S  S  Q
---------------------------------11-|-------------------------------------|
--9----11--12--L--------11-12-14----|--14---12-11-12----------------------|
------------------11-13-------------|----------------13--L-11-10-11-------|
------------------------------------|-------------------------------11----|
------------------------------------|-------------------------------------|
------------------------------------|-------------------------------------|


  Q     S  S  S  S  E   E   S   S   E     Q.      E   E   E   S   S  E
---------------------------------------|--------------------------------|
-------------------12--14--------------|---------------------11h-12-11--|
-------------11-13---------13S-15S-13--|--L----------11--13-------------|
-------11-13---------------------------|---------11---------------------|
---------------------------------------|--------------------------------|
---------------------------------------|--------------------------------|


  E   E   E  E  E   E  S  S  E     H         Q     E  E
--------------------------------|------------------------|
--L------11--9--L------9-11S-7--|--L~--------7-----------|
-----11------------10-----------|-----------------10--8--|
--------------------------------|------------------------|
--------------------------------|------------------------|
--------------------------------|------------------------|


  Q.     E  E   E  E   E     Q     E  E  H
--------------------------|-----------------------|
-------------------7--11--|--L----12--9--L--------|
--L---------8--10---------|-----------------------|
---------9----------------|-----------------------|
--------------------------|-----------------------|
--------------------------|-----------------------|


   E   E   E   E  E   E  E   E     E   E   H         E   S   S
--------------------------------|------------------------------|
--19--18--19---------18--L--19--|--L--18--19--------19--19S-21-|
--------------18--L-------------|------------------------------|
--------------------------------|------------------------------|
--------------------------------|------------------------------|
--------------------------------|------------------------------|


   E   E   E   E  E   E  E   E      H.            Q
--------------------------------|----------------------|
--19--18--19--------------------|----------------18----|
--------------18--L--16--L--18--|--18------------------|
--------------------------------|----------------------|
--------------------------------|----------------------|
--------------------------------|----------------------|


                                                     |--3--|
   E   E   E   E  E   E  E   E      E   E  H         S  S  S  E
----------------------------18--|--16--18--L-----------16-18-19--|
--19--18--19---------18--L------|-------------------19-----------|
--------------18--L-------------|--------------------------------|
--------------------------------|--------------------------------|
--------------------------------|--------------------------------|
--------------------------------|--------------------------------|


      |---3---|               |---3---|
  E   S   S   S  S  S  E  E   S   S   S  S  S  S   S     W
--L--18h-19p-18-16----16--L--16h-18p-16--------------|--------------------|
-------------------19-------------------19----19S-21-|--19----------------|
-------------------------------------------18--------|--------------------|
-----------------------------------------------------|--------------------|
-----------------------------------------------------|--------------------|
-----------------------------------------------------|--------------------|


  Q    E    Q     Q     E     Q     E   Q.       S  S  E
---------------------------|------------------------------|
--L------------------------|-----------19~----------------|
----------/18----16----15--|--L----18-----------13-15-13--|
---------------------------|------------------------------|
---------------------------|------------------------------|
---------------------------|------------------------------|


                                          >
  H         E   E   E   E      E   Q      H          S  S
----------------------------|-----------------------------|
----------------------------|-----------/21~--------------|
--L~-----------13--15--16S--|--L--18----------------15-16-|
----------------------------|--L--------------------------|
----------------------------|-----------------------------|
----------------------------|-----------------------------|


   H         Q.      E      Q     E   E    Q        E   E
------------------------|----------------------------------|
------------------------|--16----18--18b---Lpbr------------|
--15~--------L------15--|--------------------------18--17--|
------------------------|----------------------------------|
------------------------|----------------------------------|
------------------------|----------------------------------|


  E.   S  S  S     H          E      Q     E   E   Q        E   E
---------------------------------|--16----18--18b--Lpbr------------|
------14-13-14-14g16~--------16--|-------------------------19--18--|
--L------------------------------|---------------------------------|
---------------------------------|---------------------------------|
---------------------------------|---------------------------------|
---------------------------------|---------------------------------|


  E.   S  S  S  E   Q     E   E      Q      E      E   Q     E    E
---------------------------------|--19b-----Lpbr--19~--L----18--/18--|
--L---19-18-16-------------------|-----------------------------------|
---------------18~--L\-------18--|-----------------------------------|
---------------------------------|-----------------------------------|
---------------------------------|-----------------------------------|
---------------------------------|-----------------------------------|


  E   Q.      E   S  S  S  S   S  S
--L--16~------L--------14-16b-16-14-|
-----------------14-16--------------|
------------------------------------|
------------------------------------|
------------------------------------|
------------------------------------|


                |----3---|    3                 3
   S   Q.       E   E    E    E   S  S  T   T   S
--16b-16b------14--16b--16b--16--14----14h-16p-14-|
------------------------------------16------------|
--------------------------------------------------|
--------------------------------------------------|
--------------------------------------------------|
--------------------------------------------------|


         |---3--|   |---3--|  |-3-|   |---3---|
   Q     S   S  S   S  S   S  S   E   S    S  S  Q
---L--------11------------11--------------------------|
--------14b----14p-11-14b----14p-11-------------------|
-------------------------------------13br--L-11-------|
------------------------------------------------13----|
------------------------------------------------------|
------------------------------------------------------|


   Q.      Q     Q     S   S      Q.      Q     Q.
----------------------16h-18h-|--16------18----19------|
--16------18----19------------|------------------------|
------------------------------|------------------------|
------------------------------|------------------------|
------------------------------|------------------------|
------------------------------|------------------------|


   E   E   E   E  E   E  E   E     E   E   H         E   S   S
--------------------------------|------------------------------|
--19--18--19---------18--L--19--|--L--18--19--------19--19S-21-|
--------------18--L-------------|------------------------------|
--------------------------------|------------------------------|
--------------------------------|------------------------------|
--------------------------------|------------------------------|


   E   E   E   E  E   E  E   E      H.            Q
--------------------------------|----------------------|
--19--18--19--------------------|----------------18----|
--------------18--L--16--L--18--|--18------------------|
--------------------------------|----------------------|
--------------------------------|----------------------|
--------------------------------|----------------------|


                                                       |--3--|
   E   E   E   E  E   E  E   E        E   E  H         S  S  S  E
----------------------------18--||---16--18--L-----------16-18-19--|
--19--18--19---------18--L------||--------------------19-----------|
--------------18--L-------------||*--------------------------------|
--------------------------------||*--------------------------------|
--------------------------------||---------------------------------|
--------------------------------||---------------------------------|


  E   Q       Q.      E    E     E   S  S  S  S  S  S  E   S  S  S  S  S  S
--L--18br----16------14-------|-----------21--------------------21----------|
-------------------------/19--|--L--19-19----19-19-19-19--19-19----19-19-19-|
------------------------------|---------------------------------------------|
------------------------------|---------------------------------------------|
------------------------------|---------------------------------------------|
------------------------------|---------------------------------------------|


   S  S  S  S  S  S  S  S  S  S  S  S  Q
--21-------19-------18-------19-------21~----|
-----19-19----19-19----19-19----19-19--------|
---------------------------------------------|
---------------------------------------------|
---------------------------------------------|
---------------------------------------------|


   S S  S  S T  T T T  S S  S  S   S S  S S  S  S
--------------------------------------------------|
--12-0-11-12-9-11-9-0-12-0-11-12-/16-0-12-0-11-12-|
--------------------------------------------------|
--------------------------------------------------|
--------------------------------------------------|
--------------------------------------------------|


   S  S  S  S  S  S  S  S  S  S  S  S  S  S  S  S
--14----11-13-------16----14-16-------13----11-13-|
--------------14----------------14----------------|
-----13----------13----13----------13----13-------|
--------------------------------------------------|
--------------------------------------------------|
--------------------------------------------------|


   S S  S  S  S S  S S  S  S  S S  S S  S  S
------------------------------------------18-|
--12-0-12-14-16-0-16-0-16-18-19-0-19-0-19----|
---------------------------------------------|
---------------------------------------------|
---------------------------------------------|
---------------------------------------------|


   S S  S  S S  S  S S  S  S S  S  S S  S S
--16-0-18-19-0-21-23-0-18-19-0-14-16-0-16-0-|
--------------------------------------------|
--------------------------------------------|
--------------------------------------------|
--------------------------------------------|
--------------------------------------------|


   S S  S  S T  T T T  S S  S  S   S S  S S  S  S
--------------------------------------------------|
--12-0-11-12-9-11-9-0-12-0-11-12-/16-0-12-0-11-12-|
--------------------------------------------------|
--------------------------------------------------|
--------------------------------------------------|
--------------------------------------------------|


   |---3---|  |---3---|  |---3--|  |--3--| |--3--| |--3-|
   S   S   S  S   S   S  S   S  S  S  S  S S  S  S S S  S Q
--16p-14S-13-14p-13S-11-13p-11S-9-11p-9S-7-9p-7S-6-7------------|
-----------------------------------------------------9S-6-6~----|
----------------------------------------------------------------|
----------------------------------------------------------------|
----------------------------------------------------------------|
----------------------------------------------------------------|


                             |--3--|
   E.    S  S  S  S   S  E   S  S  S  T   T     S    E
--------14------------------14---------------------------|
--17b------17-14-17b-17b-L-----17-14---------------------|
-------------------------------------16b--Lpbr-14-<>16~--|
---------------------------------------------------------|
---------------------------------------------------------|
---------------------------------------------------------|


  E   T  T  T  T  T  T  T  T  T  T  T  T  T  T  T  T  T  T  T  T  T  T  T  T  T
-----------------------------------------------------------------------------19-|
--------------------------------------------------------------14-17-14----------|
--L-----------------------------------14-16-14----------14-16----------16-14----|
--------------14-16-14----------14-16----------16-14-16-------------------------|
--------14-16----------16-14-16-------------------------------------------------|
-----14-------------------------------------------------------------------------|


          |--3--|  |--3--|  3  3        |--3--|  3      |--3--|
   Q      S  S  S  S  S  S  S  S  T  T  S  S  S  S  S   S  S  S
---------------------------16-17-16-17-16----16-17-19b-19-17-19-|
--19~-------17-19----17-19----------------19--------------------|
---------18-------18--------------------------------------------|
----------------------------------------------------------------|
----------------------------------------------------------------|
----------------------------------------------------------------|


  Q    S  S  S  S  E    S  S  S  S  S  S
--L----L----------16b--------------------|
------------17-19------19----17----------|
---------18---------------18----16-14----|
--------------------------------------16-|
-----------------------------------------|
-----------------------------------------|


      S     S  E  Q     S  S  S  S  Q       Q    E   Q    Q    E
-----------------------------------------|------------------------|
-----------------------------------------|------------------------|
--14g15-14g15----------------------------|----------/6----4----3--|
--------------16--L----------------------|------------------------|
-----------------------14-13-14-13-------|------------------------|
-----------------------------------14----|--L----L----------------|


  E  Q    Q    Q    E      Q    Q    E  E  E  E      Q     E   E  E  E  E  E
------------------------|-------------------------|---------------------------|
----------9----7--------|-------------------------|-----------11--L--9--L-----|
--L--6------------------|-------------------------|---------------------------|
--------------------6~--|--L----L----L--6--8--9S--|--L----11---------------8--|
------------------------|-------------------------|---------------------------|
------------------------|-------------------------|---------------------------|


                     |---3---|
  H        Q     E   S   S   S      Q.     E  E   E  E   E
-------------------------------|----------------------------|
-------------------------------|---------------------7--11--|
----------------11--10h-11p-10-|--------------8--10---------|
--L--------L-------------------|--/13------9----------------|
-------------------------------|----------------------------|
-------------------------------|----------------------------|


  Q     E   Q     Q     S  S     S  E.    E   S  S  S  S  S  S  S  S  E
-----------------------------|------------------16-18-16-18-19-18-19-21--|
--L----12S--9~----L----16-18-|--19-18b~---L--19--------------------------|
-----------------------------|-------------------------------------------|
-----------------------------|-------------------------------------------|
-----------------------------|-------------------------------------------|
-----------------------------|-------------------------------------------|


  E.   S  S  S  E    H
--L---16-21-23-23b~--L--------|-------|
------------------------------|-------|
------------------------------|-------|
------------------------------|-------|
------------------------------|-------|
------------------------------|-------|


  E   S  S  E   S  S  S  S  S  S  S  S  E      W
--------------------------------------------|-------------------|
---------------------------14----14-16-14~--|--L----------------|
-----------11-----11-13-15----15------------|-------------------|
-----11-13-----13---------------------------|-------------------|
--------------------------------------------|-------------------|
--------------------------------------------|-------------------|


  E   S  S  E   S  S  E    E     S  S  S  S     W
--------14-14-----14-16b--16br--14----14-16-|--14~----------------|
-----16--------16------------------16-------|---------------------|
--------------------------------------------|---------------------|
--------------------------------------------|---------------------|
--------------------------------------------|---------------------|
--------------------------------------------|---------------------|


  E    S  S  S  S  Q.      Q       H        E   S  S  E   S  S
--------------------------------|------------------------------|
---------14---------------------|--------------------14--16-14-|
-----/15----13-11-13~------L----|--L-----------13-15-----------|
--------------------------------|------------------------------|
--------------------------------|------------------------------|
--------------------------------|------------------------------|


    Q     S  S  S  E.   S  S  S  S E      S  S  S  E.   S  S  S  E.   E   S  S
------------------21------------21-L--|-----------21------------21---21--21-23-|
--/19----19-18-19------19-18-19-------|--19-18-19------19-18-19----------------|
--------------------------------------|----------------------------------------|
--------------------------------------|----------------------------------------|
--------------------------------------|----------------------------------------|
--------------------------------------|----------------------------------------|


                    |--3--|
   Q.      S  S  S  T  T  T  S  S  S  S  E
--21------19-18-19-18-19-18-16---------------|
-------------------------------19-18-19-19b--|
---------------------------------------------|
---------------------------------------------|
---------------------------------------------|
---------------------------------------------|


           |--3--|  |--3--|  |--3--|  |--3--|  |--3--|  |--3--|
   E   E   S  S  S  S  S  S  S  S  S  S  S  S  S  S  S  S  S  S
------13--16-14-13-14-13----16-14-13-14-13----16-14-13-14-13----|
---L---------------------14----------------14----------------14-|
----------------------------------------------------------------|
----------------------------------------------------------------|
----------------------------------------------------------------|
----------------------------------------------------------------|


   T  T  T  T  T  T  T  T  T  T  T  T  T  T  T  T  T  T  T  T  T  T  T  T  T  T
--14-13-14-13-------14-13-14-13-------14-13-14-13-------14-13-14-13-------------|
--------------16-14-------------16-14-------------16-14-------------16-14-16-14-|
--------------------------------------------------------------------------------|
--------------------------------------------------------------------------------|
--------------------------------------------------------------------------------|
--------------------------------------------------------------------------------|


                                          |--3--|
   T  T  T  T  T  T  T  T  S  S  E  Q     S  S  S  E
--------------------------------------------16-18-19--|
--16-14----------14-16-14----------------19-----------|
--------15-13-15----------13-11-13--L-----------------|
------------------------------------------------------|
------------------------------------------------------|
------------------------------------------------------|


  E   Q       Q     Q.         E   E   E   E   E   E    E   E
--L--18br----16------------|----------16-----------------------|
-------------------19------|--17--19------19~--L--16br--L------|
---------------------------|-------------------------------18--|
---------------------------|-----------------------------------|
---------------------------|-----------------------------------|
---------------------------|-----------------------------------|


  E   S  S  S   S  S  S  S   S  S  S   S   S  S  S
---------------------------------------------------|
---------------------------------------------------|
--L--18-18-18S-16-16-16-16S-15-15-15S-13S-13-13-13-|
---------------------------------------------------|
---------------------------------------------------|
---------------------------------------------------|


  E   E   E    Q    E   E   E     W                   W
-------------------------------|-------------------|-------------------|-------|
-------------------------------|-------------------|-------------------|-------|
--9--11--11b--11----9S--8------|-------------------|-------------------|-------|
---------------------------11--|-------------------|-------------------|-------|
-------------------------------|--9----------------|--L----------------|-------|
-------------------------------|-------------------|-------------------|-------|


                                    |--3--|
                  Q    Q    Q    E  S  S  S     W
-------|-------|-----------------------------|--------------------|
-------|-------|-----------------------------|--------------------|
-------|-------|--------------------4h-6p-4h-|--3~----------------|
-------|-------|-----------------------------|--------------------|
-------|-------|-----------------------------|--------------------|
-------|-------|-----------------------------|--------------------|


  H.           E  S S      S  S   E   E  E   H
-----------------------|------------------------------|
-----------------------|------------------------------|
--L------------L-------|------------------------------|
------------------L----|------------------------------|
--------------------9S-|--11S-9S-11S--L--7~--L--------|
-----------------------|------------------------------|


                                                |---3--|
  Q    Q    E.  S S S  S S    S E.    Q    Q    E  E   E
---------------------------|-------------------------------|
---------------------------|-------------------------------|
-------------------------8-|--9-8b~---L----L-------6b--6b--|
------------------8-9-11---|-------------------------------|
----------------9----------|-------------------------------|
---------------------------|-------------------------------|


                   |---3--|
  Q     Q    E  E  E  E   E     W
-----------------------------|---------------------|
-------------------7--9--11--|--9b~----------------|
--6~----L----L--6------------|---------------------|
-----------------------------|---------------------|
-----------------------------|---------------------|
-----------------------------|---------------------|


                |----3---|
  H        Q    E   E    E      Q.       S  S   Q.     S  S
-------------------12S--14--|--14b------12-12~--L------L-12S-|
--L--------L----L-----------|--------------------------------|
----------------------------|-----------------------------9S-|
----------------------------|--------------------------------|
----------------------------|--------------------------------|
----------------------------|--------------------------------|


   S S S  S  S S S S  S S S S  S  S  E     E.  S  S  S  E  Q.     S S
--11-----11S-9-----9S-7-----7S-6S-7S-9--|--L---------------------------|
----------------------------------------|------7S-9S-7S-9--L------L----|
---8------8S-6-----6S-4-----4S-3S-4S-6--|--L------------------------6S-|
----------------------------------------|------4S-6S-4S-6--L------L----|
----------------------------------------|---------------------------4S-|
----------------------------------------|------------------------------|


  S  S  E   H        E.    S     S  S   H        Q     S  S
-----------------------------|------------------------------|
---------------------x\---11-|--12-11b~-L--------L----12-14-|
--8S-6S-8S--6--------x\------|------------------------------|
---------------------x\------|------------------------------|
--6S-4S-6S--4--------x\------|------------------------------|
-----------------------------|------------------------------|


            |--3--|  |---3--|   |--3--|  |--3--|
   Q.       S  S  S  S   S  S   S  S  S  S  S  S  S  S
-----------------11-14p-11-12p-11-------------------18-|
-----------11-14------------------14-13-12-11----------|
--15~-----------------------------------------13-11----|
-------------------------------------------------------|
-------------------------------------------------------|
-------------------------------------------------------|


                 |--3--|                |---3--|
   T   T   T  T  S  S  S  T   T   T  T  S   S  S  S  S  S  S  S  S  S  S
--14h-16p-14----14-------------------------------------------------------|
-------------16----16-14-------------------------------------------------|
-------------------------16p-15p-13--------------------------------------|
------------------------------------16--------------------------18-18-16-|
---------------------------------------14p-13-------18-18-16-16----------|
----------------------------------------------16-14----------------------|


   S  S  S  S  S  S  S  S  Q.       S  S
-----------------------------------------|
-----------------21-21-19-21b~------L-19-|
-----18-18-16-16-------------------------|
--16-------------------------------------|
-----------------------------------------|
-----------------------------------------|


           |--3--|
   Q.      S  S  S  T  T  T  T  T  T  T  T  T  T  T  T  T  T  T  T
----------------16-18-19-18-16-------------------------------------|
--19~------L-19----------------19-17-16-19-17-16-------------------|
-------------------------------------------------18-16-18-16-15-18-|
-------------------------------------------------------------------|
-------------------------------------------------------------------|
-------------------------------------------------------------------|


   T  T  T  T  T  T  T  T  T  T  T  T  T  T  T  T  T  T  T  T  T  T  T  T  T  T
--------------------------------------------------------------------------------|
--------------------------------------------------------------------------------|
--16-15-------------------------------------------------------------------------|
--------18-16-18-16-14-18-16-14-------------------------------------------------|
--------------------------------18-16-18-16-14-18-16-14-------------------------|
--------------------------------------------------------18-16-18-16-14-18-16-14-|


   |--3--|  |--3--|  |--3--|  |--3--|  |--3--|  |--3--|  |--3--|  |--3--|  |--3-
   T  T  T  T  T  T  T  T  T  T  T  T  T  T  T  T  T  T  T  T  T  T  T  T  T  T
--------------------------------------------------------------------------------|
--------------------------------------------------------------------------------|
--------------------------------------------------------------------------------|
--------------------------------------------------------------------------------|
-----------12-14-16-14-12----------------------12-14-16----14-16-14-------------|
--12-14-16----------------16-14-12-14-16-14-16----------18----------18-16-12-14-|


   |--3--|  |--3--|  |--3--|  |--3--|  |--3--|  |--3--|  |--3--|  |--3--|  |--3-
   T  T  T  T  T  T  T  T  T  T  T  T  T  T  T  T  T  T  T  T  T  T  T  T  T  T
--------------------------------------------------------------------16-18-19-21-|
--------------------------------------------------16-17-19-17-16-17-------------|
-----------------15-16-18-16-15----------15-16-18-------------------------------|
--18-16-14-16-18----------------18-16-18----------------------------------------|
--------------------------------------------------------------------------------|
--------------------------------------------------------------------------------|


   Q      Q       E   E   E.    S
--23b----23pb~----L--21b--L~---19-|
----------------------------------|
----------------------------------|
----------------------------------|
----------------------------------|
----------------------------------|


                 PH
                         |----3----|    |----3---|
   S  S  S  S    Q       E    E    E    E    E   E
--18-19----18---------------------------------------|
--------20----<>19~----\17--\15--\14--\12--\11--\8--|
----------------------------------------------------|
----------------------------------------------------|
----------------------------------------------------|
----------------------------------------------------|


   Q.        S  T  T  S  T  T  T  T  T  T  S  E   T T
------------------------------------------------------|
--\7~------/15-14-12----------------------------------|
---------------------15-12-11----------------12--11-9-|
------------------------------14-12-11----------------|
---------------------------------------14-13----------|
------------------------------------------------------|


                       |--3--|  |--3--|  |--3--|
   S  S  S  T  T  E    S  S  S  S  S  S  S  S  S  Q
----------------------------------------14-15-14--------|
-----------14-12-11~---L-11-12-14-15-17----------17b----|
--11----------------------------------------------------|
-----11-11----------------------------------------------|
--------------------------------------------------------|
--------------------------------------------------------|


                                                                PH
  E   S S E   S S S S S S  S S S S    E   S S E   S S S S S S   Q
-----------------------------------|----------------------------------|
----------2-------------2--L-------|----------2-----------------------|
--------x-2b----x-----x-2b-L-x---x-|--------x-2b----------------------|
--2b--4-x-----4-x-2-4-x------x-4-x-|--2b--4-x-----4-2-----------------|
-----------------------------------|------------------4-3-2-3-<>4~----|
-----------------------------------|----------------------------------|


     |-3-|    |-3-|    |-3-|    |-3-|    |-3-|
  S. T T T S. T T T S. T T T S. T T T S. T T T S. S S
------------------------------------------------------|
--4--------4--------4--------4--------4--------4------|
--4b-2-----4b-2-----4b-2-----4b-2-----4b-2-----4b-----|
-------4-2------4-2------4-2------4-2------4-2------2-|
--------------------------------------------------4---|
------------------------------------------------------|


  E   S S  S S S  S S  S S  S Q
------2------2----2----2-2--2-------|
------2------2----2----2-2--2-------|
--4b----4b-L---4b---4b---4b---4b----|
------------------------------------|
------------------------------------|
------------------------------------|


               |---3---|    |---3---|  |---3---|    |---3---|
   H           S    S  S    S  S    S  S    S  S    S  S    S
--------------------------------------------------------------|
-------------------17------17------17------17------17---------|
--16b~--------16pb----16pb----16pb----16pb----16pb----16pb-16-|
--------------------------------------------------------------|
--------------------------------------------------------------|
--------------------------------------------------------------|


             \1/
                                  |---3---|
   H         H            Q       E   E   E   H
----------------------|--17b~----14----------------------|
----------------------|--------------14--17--17b~--------|
--14~-----------------|----------------------------------|
----------------------|----------------------------------|
----------------------|----------------------------------|
-------------0--------|----------------------------------|


                                  |--3--|  |---3--|  |--3--|  |---3--|
   T   T  T  T  T  T  T  T  Q     S  S  S  S  S   S  S  S  S  S   S  S
----------------------------------------------------14-----------------|
--16b--L-14-16-14--------------------------------14----17-14-----------|
------------------16-14-------------------14-16b-------------16b-14----|
------------------------14-16-------14-16---------------------------16-|
---------------------------------16------------------------------------|
-----------------------------------------------------------------------|


   |--3--|  |--3--|                          |--3--|  |--3--|  |--3--|  |--3--|
   S  S  S  S  S  S  T  T  T  T  T  T  T  T  T  T  T  T  T  T  T  T  T  T  T  T
--------------------------------------------------------------------------------|
-----------------------------14-------------------------------------------------|
-----------14----------------------------------14-15-16-15-14-15-16-15-16-17-18-|
--14-15-16----16-15-14-15-16----16-15-14-15-16----------------------------------|
--------------------------------------------------------------------------------|
--------------------------------------------------------------------------------|


   |--3--|  |--3--|  |--3--|  |--3--|  |--3--|  |--3--|  |--3--|  |--3--|  |--3-
   T  T  T  T  T  T  T  T  T  T  T  T  T  T  T  T  T  T  T  T  T  T  T  T  T  T
--------------------------------------------------------------------------------|
-----------16-17-16----------16-17-16----------16-17-16----------16-17-16-------|
--16-17-18----------18-17-18----------17-18-17----------16-17-18----------18-17-|
--------------------------------------------------------------------------------|
--------------------------------------------------------------------------------|
--------------------------------------------------------------------------------|


   |--3--|  |--3--|  |--3--|  |--3--|  |--3--|  |--3--|  |--3--|  |--3--|  |--3-
   T  T  T  T  T  T  T  T  T  T  T  T  T  T  T  T  T  T  T  T  T  T  T  T  T  T
--------------------------------------------------------------------------------|
--------------------------------------------------------------------------------|
--16-18-21-18-16-18-21-18-16-18-21-18-16-18-21-18-21-18-16-18-21-18-16-18-21-18-|
--------------------------------------------------------------------------------|
--------------------------------------------------------------------------------|
--------------------------------------------------------------------------------|


   |--3--|  |--3--|  |--3--|  |--3--|  |--3--|  |--3--|  |--3--|  |--3--|  |--3-
   T  T  T  T  T  T  T  T  T  T  T  T  T  T  T  T  T  T  T  T  T  T  T  T  T  T
--------------------------------------------------------------------------------|
--19-17-14-17-19-17-14-17-19-17-14-17-19-17-19-17-14-17-19-17-14-17-19-17-14-17-|
--------------------------------------------------------------------------------|
--------------------------------------------------------------------------------|
--------------------------------------------------------------------------------|
--------------------------------------------------------------------------------|


          |---3---|  |---3---|  |---3---|  |---3---|  |---3---|  |---3---|  |---
   S  S   T   T   T  T   T   T  T   T   T  T   T   T  T   T   T  T   T   T  T
---------17p-14p-12-17p-14p-12-17p-14p-12-17p-14p-12-17p-14p-12-17p-14p-12-17p-1-|
--14-17\-------------------------------------------------------------------------|
---------------------------------------------------------------------------------|
---------------------------------------------------------------------------------|
---------------------------------------------------------------------------------|
---------------------------------------------------------------------------------|


   |---3---|  |---3---|  |---3---|  |---3---|  |---3---|  |---3---|  |---3---|
   T   T   T  T   T   T  T   T   T  T   T   T  T   T   T  T   T   T  T   T   T
--19p-17p-14-19p-17p-14-19p-17p-14-19p-17p-14-19p-17p-14-19p-17p-14-19p-17p-14-1-|
---------------------------------------------------------------------------------|
---------------------------------------------------------------------------------|
---------------------------------------------------------------------------------|
---------------------------------------------------------------------------------|
---------------------------------------------------------------------------------|


                                                               Bon courage ^^
   E    E    E    E    E    E    E    E       Q      Q    Q    Q
--21~--21~--21~--21~--21~--21~--21~--21~--|--21\~-----------------------------|
------------------------------------------|-----------------------------------|
------------------------------------------|-----------------------------------|
------------------------------------------|-----------------------------------|
------------------------------------------|-----------------------------------|
------------------------------------------|-----------------------------------|


-------||
-------||
-------||
-------||
-------||
-------||


Duration Legend
---------------
W - whole
H - half
Q - quarter
E - 8th
S - 16th
T - 32nd
X - 64th
. - note dotted
|-n-|  - n-tuplets


Tablature Legend
----------------
L - tied note
x - dead note
g - grace note
(n) - ghost note
> - accentuded note
NH - natural harmonic
AH - artificial harmonic
TH - tapped harmonic
SH - semi harmonic
PH - pitch harmonic
h - hammer on
p - pull off
b - bend
br - bendRelease
pb - preBend
pbr - preBendRelease
brb - bendReleaseBend
\n/ - tremolo bar dip
\n - tremolo bar dive
-/n - tremolo bar Release up
/n\ - tremolo bar inverted dip
/n - tremolo bar return
-\n - tremolo bar Release down
S - shift slide
s - legato slide
/ -  slide into from below or out of upwards
\ -  slide into from above or out of downwards
~ - vibrato
W - wide vibrato
tr - trill
TP - tremolo picking
T - tapping
S - slap
P - pop
< - fade in
^ - brush up
v - brush down
Suggest correction
Creating personal tab
Creating personal tab
You can edit any tab online and save it as your Personal.

You can edit, replace or remove any tab part or add personal notes – all changes will be seen only by you.

Personal tabs can be accessed anytime from any device, even offline.
Learn more »
comments
print report bad tab
1 comment total.
+4 reply
acade365 1,695 Dec 01, 2008 08:08 AM

this is one octave too high.

guest
Wanna post a correction for this tab? Suggest correction