Oops, an error
Loading. Please wait.

April Anne Bass Tab

10 views 1 this week
no commentswrite comment
1 2 3 4 5
3 more votes to show rating
add to favorites
launch autoscroll
font size
0
reset
guitar tuner
Autoscroll
slow
fast
+/-
esc
set tempo
stop
Help us to improve Ultimate-Guitar.com Take our survey!
×
Author
Difficulty
novice
Tabbed by: 6METAL6BASSIST6
E-mail: petergriffinav@gmail.com

Tuning: EADG

G|12--------------11--------------11/14---------------------------|
D|----------------------------------------------------------------|
A|----------------------------------------------------------------|
E|----------------------------------------------------------------|

G|14\12-----------12\11-----------11/14---------/-14------14--\---|
D|----------------------------------------------------------------|
A|----------------------------------------------------------------|
E|----------------------------------------------------------------|

0:12

G|----------------------------------------------------------------|
D|----------------5-------7---------------------------------------|
A|5-----------5-------------------5-----------5---5---------------|
E|------------------------------------------------------------5---|

G|----------------------------------------------------------------|
D|--------------------------------------------------------5-------|
A|5-----------5---3-----------3-------------------2---------------|
E|--------------------------------3-----------3-------------------|

G|----------------------------------------------------------------|
D|----------------4-----------4-------------------2---------------|
A|5-----------5-------------------2-----------2-------------------|
E|--------------------------------------------------------5---/---|

0:30

G|----------------------------------------------------------------|
D|----------------4-----------4-------------------2---------------|
A|------------5-------------------2-----------2-------------------|
E|10------------------------------------------------------5-------|

G|----------------------------------------------------------------|
D|----------------4-----------4-----------------------------------|
A|5-----------5-------------------2-----------2---2-------2-------|
E|----------------------------------------------------------------|

G|----------------------------------------------------------------|
D|----------------------------------------------2/7---------------|
A|3-------3-------2-------2---------------------------------------|
E|--------------------------------5-------5-----------5-------5-/-|

0:47

G|----------------------------------------------------------------|
D|----------------5-------7---------------------------------------|
A|------------5-------------------5-----------5-------------------|
E|10------------------------------------------------------5---/---|

G|----------------------------------------------------------------|
D|----------------------------4-----------------------------------|
A|------------5---5---------------5-----------5---5---------------|
E|10----------------------------------------------------------3---|

G|----------------------------------------------------------------|
D|--------------------------------------------------------2-------|
A|5-----------5---3-----------3-------------------2---5-----------|
E|--------------------------------3-----------3---------------3---|

G|----------------------------------------------------------------|
D|----------------4-----------4-------------------2---------------|
A|5-----------5-------------------2-----------2-------------------|
E|--------------------------------------------------------5---/---|

1:10

G|----------------------------------------------------------------|
D|----------------4-----------4-------------------2---------------|
A|------------5-------------------2-----------2-------------------|
E|10------------------------------------------------------5---/---|

G|----------------------------------------------------------------|
D|----------------4-----------4-----------------------------------|
A|------------5-------------------2-----------2---2-----------2---|
E|10--------------------------------------------------------------|

G|--------------------------------------------------------------/-|
D|----------------------------------------2-/-7-------7-------7---|
A|3-------3-------2-------2---------------------------------------|
E|--------------------------------5-------------------------------|

G|12--------------11--------------11/14---------/-14--14--14------|
D|----------------------------------------------------------------|
A|----------------------------------------------------------------|
E|----------------------------------------------------------------|

1:33

G|----------------------------------------------------------------|
D|9---9-------9---9---9-------9---5---5-------5---5---5-------5---|
A|----------------------------------------------------------------|
E|----------------------------------------------------------------|

G|----------------------------------------------------------------|
D|----------------4---4-------4-------------------------------2-/-|
A|5---5-------5-------------------2---2-------2-------------------|
E|------------------------------------------------5---5-----------|

G|----------------------------------------------------------------|
D|9---9-------9---9---9-------9-\-5-----------5---5---5-------5---|
A|----------------------------------------------------------------|
E|----------------------------------------------------------------|

G|--------------------------------|
D|--------------------------------|
A|5---5-------5-\-2---2-------2---|
E|--------------------------------|

G|----------------------------------------------------------------|
D|4-------4-----4-4-------4-------2-------2-----2-2-------2-------|
A|----------------------------------------------------------------|
E|----------------------------------------------------------------|

G|------------------------------------9---8-----7-----5-----------|
D|2-/-7---7---7---7---7---7---7---7-----7-----------7-----7---4---|
A|----------------------------------------------------------------|
E|----------------------------------------------------------------|

2:05

G|----------------------------------------------------------------|
D|----------------------------------------------------------------|
A|5-----------------------------------------------5---------------|
E|------------3---3-----------5-/-10----------5-------------------|

G|----------------------------------------------------------------|
D|------------------------------------------------------------5---|
A|5-------5-------3-------3---------------------------5---7-------|
E|--------------------------------3-------3-------7---------------|

G|----------------------------------------------------------------|
D|----------------4-------------------------------2---------------|
A|5-------------------------------2-------------------------------|
E|--------------------------------------------------------5---/---|

G|----------------------------------------------------------------|
D|----------------4-------------------------------2---------------|
A|--------------------------------2-------------------------------|
E|10------------------------------------------------------5-------|

G|------------------------------------------------------------------|
D|------------------------------------------------12/14-------------|
A|5---------------7/9-------------9-/-12--------------------12\-----|
E|------------------------------------------------------------------|

2:33

G|----------------------------------------------------------------|
D|----------------------------------------------------7---7---\---|
A|5-------------------------------2-------------------------------|
E|----------------2-----------------------------------------------|

G|----------------------------------------------------------------|
D|----------------4-------------------------------2-------7---/---|
A|5-------------------------------2-------------------------------|
E|----------------------------------------------------------------|

G|----------------------------------------------------------------|
D|12--------------------------------------------/-14--------------|
A|--------------------------------2-----------------------12--\---|
E|----------------2-----------------------------------------------|

2:50

G|----------------------------------------------------------------|
D|----------------4---------------7-/-9---------/-14------7-------|
A|5---------------------------------------------------------------|
E|----------------------------------------------------------------|

G|---------------------------------------------------------12/14----|
D|----------------------------4-/-9---------------12/14-------------|
A|5-----------------------------------------------------------------|
E|----------------2-------------------------------------------------|

G|----------------------------------------------/-14----/-14------|
D|12--------------4---------------9-------------------------------|
A|----------------------------------------------------------------|
E|----------------------------------------------------------------|

G|----------------------------------------------------------------|
D|12----------\---4-----------------------------------7---7-------|
A|--------------------------------2---2---------2/7---------------|
E|----------------------------------------------------------------|

G|----------------------------|
D|--------7-------4-------4---| fades out here.
A|5-------------5-------------|
E|----------------------------|
Suggest correction
Give kudos to tab author, rate the tab!
1 2 3 4 5
comments
print report bad tab
guest
You may want to rate the tab now too:
select rating
Wanna post a correction for this tab? Suggest correction