Oops, an error
Loading. Please wait.

Flawless Space Bass Tab

13 views 1 this week
no commentswrite comment
1 2 3 4 5
3 more votes to show rating
add to favorites
launch autoscroll
font size
0
reset
guitar tuner
Autoscroll
slow
fast
+/-
esc
set tempo
stop
Help us to improve Ultimate-Guitar.com Take our survey!
×
Author
Difficulty
novice
Tabbed by: 6METAL6BASSIST6
E-mail: petergriffinav@gmail.com

Tuning: EADG

0:25

G|----------------------------------------------------------------|
D|----------------------------------------------------------------|
A|3-------------------------------6-----------------------6-------|
E|----------------6-----------------------------------------------|

G|----------------------------------------------------------------|
D|----------------------------------------------------------------|
A|------------------------------------------------------------2---|
E|4---------------6---------------3-------------------------------|

G|----------------------------------------------------------------|
D|----------------------------------------------------------------|
A|3-------------------------------6---------------3---------------|
E|----------------6-----------------------------------------------|

G|----------------------------------------------------------------|
D|----------------------------------------------------------------|
A|--------------------------------3-----------------------2-------|
E|4---------------6-----------------------------------------------|

0:50

G|----------------------------------------------------------------|
D|----------------------------------------------------------------|
A|--------------------------------6-------------------------------|
E|5---------------6-----------------------------------------------|

G|----------------------------------------------------------------|
D|----------------------------------------------------------------|
A|------------------------------------------------------------2---|
E|4---------------6---------------3-------------------------------|

G|----------------------------------------------------------------|
D|----------------------------------------------------------------|
A|3-------------------------------6---------------3---------------|
E|----------------6-----------------------------------------------|

G|----------------------------------------------------------------|
D|----------------------------------------------------------------|
A|--------------------------------3-------3-------3-------3-------|
E|4---------------6-----------------------------------------------|

1:15

G|------------------------------------------------------------------------------------------------|
D|12-12-12-12-12-12-12-12-11-11-11-11-12-12-12-12-12-12-12-12-12-12-12-12-11-11-11-11-12-12-12-12-|
A|------------------------------------------------------------------------------------------------|
E|------------------------------------------------------------------------------------------------|

G|------------------------------------------------------------------------------------15------|
D|12-12-12-12-12-12-12-12-11-11-11-11-12-12-12-12-13-13-13-13-13-13-13-13-13-13-13-13-----13--|
A|--------------------------------------------------------------------------------------------|
E|--------------------------------------------------------------------------------------------|

G|------------------------------------------------------------------------------------------------|
D|12-12-12-12-12-12-12-12-11-11-11-11-12-12-12-12-12-12-12-12-12-12-12-12-11-11-11-11-12-12-12-12-|
A|------------------------------------------------------------------------------------------------|
E|------------------------------------------------------------------------------------------------|

G|--------------------------------------------------------------------------|
D|12-12-12-12-12-12-12-12-11-11-11-11-12-12-12\-3---3-------5---------------|
A|--------------------------------------------------------------------------|
E|----------------------------------------------------------------------3---|

1:37

G|----------------------------------------------------------------|
D|------------------------------------------------------------3---|
A|3-------------------------------6-----------------------6-------|
E|----------------6-----------------------------------------------|

G|----------------------------------------------------------------|
D|----------------------------------------------------------------|
A|------------------------------------------------------------2---|
E|4---------------6---------------3-------------------------------|

G|----------------------------------------------------------------|
D|----------------------------------------------------------------|
A|3-------------------------------6---------------3---------------|
E|----------------6-----------------------------------------------|

G|----------------------------------------------------------------|
D|----------------------------------------------------------------|
A|--------------------------------3-----------------------3---2---|
E|4---------------6-----------------------------------------------|

2:02

G|----------------------------------------------------------------|
D|------------------------------------------------------------3---|
A|--------------------------------6-----------------------6-------|
E|5---------------6-----------------------------------------------|

G|----------------------------------------------------------------|
D|----------------------------------------------------------------|
A|------------------------------------------------------------2---|
E|4---------------6---------------3-----------------------3-------|

G|----------------------------------------------------------------|
D|----------------------------------------------------------------|
A|3-------------------------------6---------------3---------------|
E|----------------6-----------------------------------------------|

G|--------------------------------|
D|--------------------------------|
A|--------------------------------|
E|4---------------6---------------|

2:24

G|----------------------------------------------------------------|
D|----------------------------------------------------------------|
A|3---------------------------------------------------------------|
E|----------------------------------------------------------------|

G|------------------------------------12--12--12--12--------------|
D|----------------------------------------------------------------|
A|----------------------------------------------------------------|
E|--------4---------------6-----------------------------------3---|

G|-----------------------------------------8---7---5--------------|
D|------------------------------------------------------------8---|
A|3---------------------------------------------------------------|
E|----------------------------------------------------------------|

G|----------------------------------------12--/---17------17------|
D|6---------------8---------------10------------------------------|
A|----------------------------------------------------------------|
E|----------------------------------------------------------------|

2:28

G|17--------------15------------------8-----------8---------------|
D|----------------------------------------8-----------8-----------|
A|--------------------------------------------6-----------6-------|
E|----------------------------------------------------------------|

G|------------------------------------12--------------------------|
D|----------------------------------------12----------------------|
A|--------------------------------------------10----------6-------|
E|------------------------------------------------------------3---|

G|--------------------------------------------8---5---------------|
D|----------------------------------------8-----------5-----------|
A|3-----------------------------------6-------------------3-------|
E|------------------------------------------------------------6---|

G|--------------------------------12------12------12------12------|
D|----------------------------------------------------------------|
A|----------------------------------------------------------------|
E|4---------------6-----------------------------------------------|

3:12

G|--------14--------------------------------------8---------------|
D|----------------------------------------------8---8---8---------|
A|--------------------------------------------6-------6---6-------|
E|------------------------------------------------------------6---|

G|----------------------------------------------------------------|
D|--------------------------------------------5-------------------|
A|----------------------------------------------------------------|
E|4---------------6-----------------------------------3-----------|

G|----------------3-----------------------------------------------|
D|----------------------------------------------------------------|
A|3-------------------------------6---------------3---------------|
E|----------------------------------------------------------------|

G|----------------------------------------------------------------|
D|----------------------------------------------------------------|
A|----------------------------------------3-----------------------|
E|4-----------------6---------------------------------------------|
Suggest correction
Give kudos to tab author, rate the tab!
1 2 3 4 5
comments
print report bad tab
guest
You may want to rate the tab now too:
select rating
Wanna post a correction for this tab? Suggest correction