Oops, an error
Loading. Please wait.

Larry Joe Hal And Me Bass Tab

4 views 1 this week
no commentswrite comment
1 2 3 4 5
3 more votes to show rating
add to favorites
launch autoscroll
font size
0
reset
guitar tuner
Autoscroll
slow
fast
+/-
esc
set tempo
stop
Help us to improve Ultimate-Guitar.com Take our survey!
×
Author
Difficulty
novice
Tabbed by: 6METAL6BASSIST6
E-mail: petergriffinav@gmail.com

Tuning: EADG

G|------------------------------------------------------------------------------------------------|
D|------------7-----------------------7---4-------------------9-----------------------9---6-------|
A|5-----------------------5-----------------5-----7-----------------------7-----------------7-----|
E|------------------------------------------------------------------------------------------------|

G|------------------------------------------------------------------------------------------------|
D|------------10----------------------10--7-------10----------5-----------------------2---3-5-----|
A|8-----------------------8-----------------8-----------------------------3-----------------------|
E|------------------------------------------------------------------------------------------------|

0:19

G|------------------------------------------------------------------------------------------------|
D|------------7-----------------------7-----------5-----------3-----------2---3-4-----5-----------|
A|5-----------------------5---------------5-7-----------------------------------------------5-----|
E|------------------------------------------------------------------------------------------------|

G|------------------------------------------------------------------------------------------------|
D|3-----------------------5-----------------------------------2-----------3-----------------------|
A|------------3-----------------------5-----------3-----------------------------------3-----------|
E|------------------------------------------------------------------------------------------------|

G|------------------------------------------------------------|
D|----------/-5---------/-5---------/-5---/-5---/-5---/-5-----|
A|5-----------------------------------------------------------|
E|------------------------------------------------------------|

0:43

G|----------------------7/9---7-----------------------------------------9/11--9-------------------|
D|------------7-----------------10--9-7---5-4-----------------9----------------12--11-9---7-6-----|
A|5---------------------------------------------5-7---------------------------------------------7-|
E|------------------------------------------------------------------------------------------------|

G|---------------------10/12--10------------------------------------------------------------------|
D|------------10--------------------13----12----10------10----8-----7-\---------2-----3---4-5-----|
A|8-----------------------------------------------------------------------3---3-------------------|
E|------------------------------------------------------------------------------------------------|

1:02

G|------------------------------------------------------------------------------------------------|
D|------------7-----------------------------4-----5-----------3-----------2---3-4---5-------5-----|
A|5-----------------------5---------5-7---------------------------------------------------5-------|
E|------------------------------------------------------------------------------------------------|

G|------------------------------------------------------------------------------------------------|
D|3-----------------------5---------5-------5-----------------2-----------3---------------------3-|
A|------------3-----------------------5-----------3-----------------------------------3-----------|
E|------------------------------------------------------------------------------------------------|

G|------------------------------------------------------------|
D|------------5-----------5---------/-5---/-5---/-5---/-5-----|
A|5-----------------------------------------------------------|
E|------------------------------------------------------------|

1:26

G|----------------------/-9---/-9-----7-----9---------------------------/-11--/-11----9-----11----|
D|------------7-----------------------------------------------9-----------------------------------|
A|5-----------------------------------------------7-----------------------------------------------|
E|------------------------------------------------------------------------------------------------|

G|----------------------/-12--/-12----10--\-------------------------------------------------------|
D|------------10----------------------------------------------5---------5/7---10--\---------2-----|
A|8-----------------------------------------8-\---3-----------------------------------3-----------|
E|------------------------------------------------------------------------------------------------|

1:45

G|------------------------------------9\7---------------------------------------------------------|
D|------------7-----------------------------------7\5---------3-----------2---3-4---5-------------|
A|5-----------------------5-----------------------------------------------------------------5-----|
E|------------------------------------------------------------------------------------------------|

G|------------------------------------------------------------------------------------------------|
D|3-----------------------5---------------------5-------------2-----------3-----------------------|
A|------------3-----------------------5-----------3-----------------------------------3-----------|
E|------------------------------------------------------------------------------------------------|

G|------------------------------------------------------------|
D|----------/-5---------/-5---------/-5---/-5---/-5---/-5-----|
A|5-----------------------------------------------------------|
E|------------------------------------------------------------|

2:08

G|----------------------7-----------------------------------------------9-------------------------|
D|------------7-----------4---5-7-----------4-----------------9-----------9-----------6-----9-----|
A|5-----------------------------------5---7-------7---------------------------7-9-----------------|
E|------------------------------------------------------------------------------------------------|

G|------------------------------------10----|
D|------------10----------7---8-10----------| fades out here.
A|8-----------------------------------------|
E|------------------------------------------|
Suggest correction
Give kudos to tab author, rate the tab!
1 2 3 4 5
comments
print report bad tab
guest
You may want to rate the tab now too:
select rating
Wanna post a correction for this tab? Suggest correction