Oops, an error
Loading. Please wait.

Malibu People bass

49 views 1 this week
no commentswrite comment
1 2 3 4 5
3 more votes to show rating
add to favorites
×
Save as Personal and add changes to this tab that will be seen only by you. Learn more ›
×
You can save this tab as Personal to edit and correct it or add notes. All changes will be seen only by you. Learn more »
launch autoscroll
font size
0
reset
guitar tuner
edit
Autoscroll
slow
fast
+/-
esc
set tempo
stop
Author
Difficulty
Tabbed by: 6METAL6BASSIST6
E-mail: petergriffinav@gmail.com
Tuning: EADG

[0:00]

G|------------------------------------------------------------------------7-----------------------|
D|------------------------------------------------5-----------7-----------------------------------|
A|5-----------------------------------------------------------------------------------------------|
E|------------------------5-----------------------------------------------------------------------|

G|------------------------------------------------------------------------------------------------|
D|5-----------------------7-----------------------------------------------------------------------|
A|------------------------------------------------------------------------------------------------|
E|------------------------------------------------5---/-10----------------------------------------|


[0:15]

G|------------------------------------------------------------------------------------------------|
D|------------------------7-----------------------5-----------7-----------------------------------|
A|5-----------------------------------------------------------------------5-----------------------|
E|------------------------------------------------------------------------------------------------|

G|------------------------------------------------------------------------------7-----------------|
D|5-----------------------7-----------------------------------------------------------------7-----|
A|------------------------------------------------5-----------------------------------------------|
E|------------------------------------------------------------------------------------------------|

G|------------------------------------------------------------------------------------------------|
D|------------------------7-----------------------5-----------4-----------4-/-9-------------------|
A|5-----------------------------------------------------------------------------------------------|
E|------------------------------------------------------------------------------------------------|

G|------------------------------------------------------------6-----9-----------6-----------------|
D|5-----------------------4-----------------------7-----9-----------------------------7-----------|
A|------------------------------------------------------------------------------------------------|
E|------------------------------------------------------------------------------------------------|


[0:42]

G|------------------------------------------------------------------------------------------------|
D|------------------------------------------------5-----------7-----------------------------------|
A|5-----------------------------------------------------------------------5-----------------------|
E|------------------------5-----------------------------------------------------------------------|

G|------------------------------------------------------------------------------7-----------------|
D|5-----------------------7-----------------------------------------------------------7-----------|
A|------------------------------------------------5-----------------------------------------------|
E|------------------------------------------------------------------------------------------------|

G|------------------------------------------------------------------------------------------------|
D|------------------------------------------------5-----------4-----------4-/-9-------------------|
A|5-----------------------------------------------------------------------------------------------|
E|------------------------5-----------------------------------------------------------------------|

G|------------------------------------------------------9-----6-----------------------------------|
D|5-----------------------4-----------------------------------------7-----------------------------|
A|------------------------------------------------------------------------------------------------|
E|------------------------------------------------------------------------5-----------------------|


[1:08]

G|------------------------------------------------------------------------7-----------------------|
D|------------------------7-----------------------5-----------7-----------------------------7-----|
A|5-----------------------------------------------------------------------------------------------|
E|------------------------------------------------------------------------------------------------|

G|------------------------------------------------7-----------------------------------------------|
D|5-----------------------7-----------------------------------7-----------4-----------7-----------|
A|------------------------------------------------------------------------------------------------|
E|------------------------------------------------------------------------------------------------|

G|------------------------------------------------------------------------------------------------|
D|------------------------7-----------------------5-----------4---------/-9-----------------------|
A|5-----------------------------------------------------------------------------------------------|
E|------------------------------------------------------------------------------------------------|

G|------------------------------------------------------------------------------------------------|
D|5-----------------------4-----------------------7-----4-----------------------------------------|
A|------------------------------------------------------------7-----------------------------------|
E|------------------------------------------------------------------5-----------5-----------------|


[1:35]

G|------------------------------------4-----------------------------------------------------------|
D|------------4-----7-----5-----7-----------5-----7-----------------------------------4-----7-----|
A|5-----7-----------------------------------------------------------4-----5-----7-----------------|
E|------------------------------------------------------5-----7-----------------------------------|

G|------------4-----------------------4-----6-----7-----4-----------------------------------------|
D|5-----7-----------5-----7-----7-----------------------------7-----------------------------------|
A|------------------------------------------------------------------5-----------------------------|
E|------------------------------------------------------------------------------------------------|

G|------------------------------------4-----------------------------------------------------------|
D|------------4-----------5-----7-----------5-----7-----------------------------------4-----7-----|
A|5-----7-----------5-----------------------------------------------4-----5-----7-----------------|
E|------------------------------------------------------5-----7-----------------------------------|

G|------------------------------------------------------------------------------------------------|
D|5-----------------------4-----------------------7-----------------------------------------------|
A|------------------------------------------------------------------------------------------------|
E|------------------------------------------------------------------------5-----------------5---/-|


[2:01]

G|------------------------------------------------------------------------------------------------|
D|------------------4-----5-----------------5-----7-----------------------------------4-----------|
A|------------7-----------------------------------------------------7-----5-----7-----------------|
E|10----------------------------------------------------------------------------------------------|

G|------------------------------------------------7-----------------------------------------------|
D|5-----------------5-----7-----------------------------7-----4-----------------------4-----7-----|
A|------------------------------------------------------------------------5-----------------------|
E|------------------------------------------------------------------------------------------------|

G|------------------------------------------4-----------------------------------------------------|
D|------------------4-----5-----------------------7-----------------7-----------4-----7-----------|
A|5-----------------------------------------------------------------------5-----------------------|
E|------------------------------------------------------------------------------------------------|

G|------------------4-----------------------------------------------------------------------------|
D|5-----------------------7-----------------4-----------------4-----4-----7-----------------------|
A|------------------------------------------------5-----5-----------------------------------------|
E|------------------------------------------------------------------------------------------------|


[2:27]

G|------------------------------------------------------------------------------------------------|
D|------------------------7-----------------------5-----------7-----------------------------------|
A|5-----------------------------------------------------------------------5-----------------------|
E|------------------------------------------------------------------------------------------------|

G|------------------------------------------------------------------------------7-----------------|
D|5-----------------------7-----------------------------------------------------------------7-----|
A|------------------------------------------------------------------------------------------------|
E|------------------------------------------5---/-10----------------------------------------------|

G|------------------------------------------------------------------------------------------------|
D|------------------------7-----------------------5-----------4---------/-9-----------------------|
A|5-----------------------------------------------------------------------------------------------|
E|------------------------------------------------------------------------------------------------|

G|------------------------------------------------------------6-----9-----------6-----------------|
D|5-----------------------4-----------------------7-----9-----------------------------7-----------|
A|------------------------------------------------------------------------------------------7-----|
E|------------------------------------------------------------------------------------------------|


[2:52]

G|------------------------------------4-----------------------------------------------------------|
D|------------4-----7-----5-----7-----------5-----7-----------------------------------4-----7-----|
A|5-----7-----------------------------------------------------------4-----5-----7-----------------|
E|------------------------------------------------------5-----7-----------------------------------|

G|------------4-----------------------------------------------------7---------------7-4-----------|
D|5-----7-----------5-----7-----4-----------------------4-----7-----------------------------7-----|
A|------------------------------------7-----4-----5-----------------------------------------------|
E|------------------------------------------------------------------------------------------------|

G|------------------------------------4-----------------------------------------------------------|
D|------------4-----7-----5-----7-----------5-----7-----4-----------------------------4-----7-----|
A|5-----7-----------------------------------------------------7-----4-----5-----7-----------------|
E|------------------------------------------------------------------------------------------------|

G|------------------------------------------------------------------6-----9-----6-----------------|
D|5-----------------5-----4---------------------/-7-----------------------------------7-----------|
A|------------------------------------------------------------------------------------------------|
E|------------------------------------------------------------------------------------------------|

G|------------------------------------------------------------------6-----7-----------------------|
D|------------------------------5-----------5-----7-----7-----------------------7-----4-----7-----|
A|5-----5-----------5-----------------------------------------------------------------------------|
E|------------------------------------------------------------------------------------------------|

G|------------------------------------------6-----7-----------------------------------------7-----|
D|5-----------------------7-----------------------------7-----4-----7-----------4-----7-----------|
A|------------------------------------------------------------------------5-----------------------|
E|------------------------------------------------------------------------------------------------|

G|------------------------------------------------|
D|------------------------------------------------|
A|5-----------------------------------------------|
E|------------------------------------------------|


************************************

| /  Slide up

************************************

            
            
Suggest correction
Creating personal tab
Creating personal tab
You can edit any tab online and save it as your Personal.

You can edit, replace or remove any tab part or add personal notes – all changes will be seen only by you.

Personal tabs can be accessed anytime from any device, even offline.
Learn more »
Give kudos to tab author, rate the tab!
1 2 3 4 5
comments
print report bad tab
guest
You may want to rate the tab now too:
select rating
Wanna post a correction for this tab? Suggest correction