Oops, an error
Loading. Please wait.

Someones Sleeping bass

22 views 1 this week
no commentswrite comment
1 2 3 4 5
3 more votes to show rating
add to favorites
×
Save as Personal and add changes to this tab that will be seen only by you. Learn more ›
×
You can save this tab as Personal to edit and correct it or add notes. All changes will be seen only by you. Learn more »
launch autoscroll
font size
0
reset
guitar tuner
edit
Autoscroll
slow
fast
+/-
esc
set tempo
stop
Author
Difficulty
Tabbed by: 6METAL6BASSIST6
E-mail: petergriffinav@gmail.com

Tuning: EADG

G|----------------------------------------------------------------|
D|----------------------------------------------------------------|
A|8---------------7---------------5-----------3-------------------|
E|----------------------------------------------------------------|

G|----------------------------------------------------------------|
D|--------------------------------5-----------5---5---------------|
A|8---------------7-----------------------------------------------|
E|----------------------------------------------------------------|

G|--------------------------------|
D|5-----------5---5---------------|
A|--------------------------------|
E|--------------------------------|

0:12

G|----------------7-------------------------------5---------------|
D|7-----------7-------------------5-----------5---------------5---|
A|----------------------------------------------------------------|
E|----------------------------------------------------------------|

G|----------------7-------------------------------5---------------|
D|7-----------7---------------7---5-----------5-------------------|
A|----------------------------------------------------------------|
E|----------------------------------------------------------------|

G|5-------------------------------------------4---5---------------|
D|------------5---3---------------5-------------------------------|
A|----------------------------------------------------------------|
E|----------------------------------------------------------------|

G|5---------------------------------------------------------------|
D|------------5---3---------------8-------7-------5-----------5---|
A|----------------------------------------------------------------|
E|----------------------------------------------------------------|

G|------------------------------------------------|
D|5-----------5---5-----------5---5-------5-------|
A|------------------------------------------------|
E|------------------------------------------------|

0:34

G|----------------7-------------------------------5---------------|
D|7-----------7-------------------5-----------5---------------5---|
A|----------------------------------------------------------------|
E|----------------------------------------------------------------|

G|----------------7-------------------------------5---------------|
D|7-----------7---------------7---5-----------5-------------------|
A|----------------------------------------------------------------|
E|----------------------------------------------------------------|

G|5-------------------------------------------4---5---------------|
D|------------5---3---------------5-------------------------------|
A|----------------------------------------------------------------|
E|----------------------------------------------------------------|

G|5---------------------------------------------------------------|
D|------------5---3---------------8-------7-------5-----------5---|
A|----------------------------------------------------------------|
E|----------------------------------------------------------------|

G|5-------------------------------|
D|----------------5---------------|
A|--------------------------------|
E|--------------------------------|

0:56

G|----------------------------------------------------------------|
D|----------------------------------------------------------------|
A|8---------------7---------------5-----------3-------------------|
E|----------------------------------------------------------------|

G|----------------------------------------------------------------|
D|--------------------------------5-----------5---5---------------|
A|8---------------7-----------------------------------------------|
E|----------------------------------------------------------------|

G|--------------------------------|
D|5-----------5---5-------7---9---|
A|--------------------------------|
E|--------------------------------|

1:06

G|------------------------------------------------9-----------9---|
D|10----------10--9-----------9---7-----------7-------------------|
A|----------------------------------------------------------------|
E|----------------------------------------------------------------|

G|10----------10--9---------------10------------------------------|
D|----------------------------------------------------------------|
A|------------------------------------------------10--------------|
E|----------------------------------------------------------------|

G|----------------------------------------------------------------|
D|--------------------------------7-----------7-------------------|
A|----------------10------------------------------7---------------|
E|8-----------8---------------------------------------------------|

G|----------------------------------------------------------------|
D|--------------------------------8-------7-------5---------------|
A|8-----------8---------------------------------------------------|
E|----------------8-----------------------------------------------|

G|----------------------------------------------------------------|
D|----------------------------------------------------------------|
A|3-----------3---3---------------3-----------3---3---------------|
E|----------------------------------------------------------------|

1:30

G|------------------------------------------------5---------------|
D|7-------------------------------5-------------------------------|
A|----------------5-----------------------------------------------|
E|----------------------------------------------------------------|

G|----------------7-------------------------------5---------------|
D|7-------------------------------5-----------5-------------------|
A|----------------------------------------------------------------|
E|----------------------------------------------------------------|

G|5-----------------------------------------------5---------------|
D|------------5---3---------------5-------------------------------|
A|----------------------------------------------------------------|
E|----------------------------------------------------------------|

G|5---------------------------------------------------------------|
D|------------5---3---------------8-------7-------5-----------5---|
A|----------------------------------------------------------------|
E|----------------------------------------------------------------|

G|------------------------------------------------|
D|5---------------5-----------5---5-------5---/---|
A|------------------------------------------------|
E|------------------------------------------------|

1:52

G|------------------------------------------------9-----------9---|
D|10----------10--9-----------9---7-----------7-------------------|
A|----------------------------------------------------------------|
E|----------------------------------------------------------------|

G|10----------10--9-----------9---10----------10--12------12------|
D|----------------------------------------------------------------|
A|----------------------------------------------------------------|
E|----------------------------------------------------------------|

G|------------------------------------------------9---------------|
D|10----------10--9-----------9---7-----------7-------------------|
A|--------------------------------------------------------7-------|
E|----------------------------------------------------------------|

G|----------------------------------------------------------------|
D|--------------------------------8-------7-------5---------------|
A|8-----------8---------------------------------------------------|
E|----------------8-----------------------------------------------|

2:12

G|----------------------------------------------------------------|
D|10----------10--9-----------9---7-----------7-------------------|
A|------------------------------------------------7---------------|
E|----------------------------------------------------------------|

G|----------------------------------------------------------------|
D|------------------------10--------------------------7---9-------|
A|8---------------7---10----------8---------------10--------------|
E|----------------------------------------------------------------|

G|----------------------------------------------------------------|
D|10--------------9---------------7-----------7-------------------|
A|------------------------10----------------------7---------------|
E|----------------------------------------------------------------|

G|----------------------------------------------------------------|
D|------------------------10------8-------7-----------------------|
A|8-----------10--7---7---------------------------10--8---7---10--|
E|----------------------------------------------------------------|

2:25

G|----------------------------------------------------------------|
D|----------------------------------------------------9-----------|
A|----------------10------------------------------7-------7-------|
E|8-------------------------------5-------------------------------|

G|--------------------------------------------------------------------|
D|--------------------------------------------7---9---------------10--| fades out here.
A|8---------------7---------------8-----------------------10----------|
E|------------------------8-------------------------------------------|

            
            
Suggest correction
Creating personal tab
Creating personal tab
You can edit any tab online and save it as your Personal.

You can edit, replace or remove any tab part or add personal notes – all changes will be seen only by you.

Personal tabs can be accessed anytime from any device, even offline.
Learn more »
Give kudos to tab author, rate the tab!
1 2 3 4 5
comments
print report bad tab
guest
You may want to rate the tab now too:
select rating
Wanna post a correction for this tab? Suggest correction